Михаил Круг - День как день, аккорды

Прокрутка
Тональность
Шрифт
100
           Am
День как день
  Dm          E              Am
Так же весело шуршит в саду листва
Dm            G              C
Ведь до осени еще ей жить и жить
A7                          Dm
Дым из пепельницы пляшет сигарет
E           
А в душе
Dm            E      Am
А я в душе не верю, нет.

Проигрыш: Am  Dm  E

2----------------------------------------------8-6-5----5-6-8-6-5-----------  
3---------4-5-7-5-9--7-5-4-5-------4-5-7-5-9-7-------------------7-7--9--4-5  
4----(5)-7--------------------(5)-7-----------------------------------------  

        Am
Мы молчим  
  Dm          E              Am
И никто не знает что и как сказать
Dm            G              C
То что каждый тонко чувствует в себе
A7                          Dm
Жизнь к тебе несправедливою была
E    Am   Dm            E       Am  
И в душе не смолкая все звенят колокола

Проигрыш: Am  Dm  E

2----------------------------------------------8-6-5----5-6-8-6-5-----------  
3---------4-5-7-5-9--7-5-4-5-------4-5-7-5-9-7-------------------7-7--9--4-5  
4----(5)-7--------------------(5)-7-----------------------------------------  

        Am
Кто-то пьет, 
  Dm          E              Am
Кто-то крепится, но слезы не сдержать
Dm            G              C
По-маленьку, по-тихоньку сознаешь
A7                          Dm
Как тепло от слова доброго «Привет» на душе
E    Am   Dm          E Am  
Да только вот ответа нет

Проигрыш: Am  Dm  E

2----------------------------------------------8-6-5----5-6-8-6-5-----------  
3---------4-5-7-5-9--7-5-4-5-------4-5-7-5-9-7-------------------7-7--9--4-5  
4----(5)-7--------------------(5)-7-----------------------------------------  

      Am
На холме 
  Dm          E        Am
Фотография и четные цветы
Dm            G             C
Тоже срезанные с каплями росы
A7                        Dm
На которые не прилетит пчела
E    Am   Dm            E       Am  
А в душе не смолкая все звенят колокола.

Комментарий автора:

В этой песне Круг специально немного сбивает ритм, поэтому играть нужно 
внимательно, а еще лучше под запись - первые пару раз.

Песня посвящается пацанам, которых с нами больше нет...
 
 

Видео