Misc Computer Games - OST "Sally Face", аккорды

Прокрутка
Тональность
Шрифт
100
E---0------------0------------
B----3-1-0-1-0-----3-1-0-1----
G----------------------------2
D-2------------2-------------- x2
A-----------------------------
E-----------------------------

E-------0-0-0-0-0---------------------------------------0-0-0-0-0---------------------------------
B-----------------3-3-3-1-1-1-1-1-1-1-1-0-0-0-0-0-----------------3-3-3-1-1-1-1-1-1-1-1-----------
G---------------------------------------------------------------------------------------2-2-2-2-2-    
D-2-2-2-------------------------------------------2-2-2------------------------------------------- x2
A-------------------------------------------------------------------------------------------------
E-------------------------------------------------------------------------------------------------

E---0------------0-------------
B----3-1-0-1-0-----3-1-0-1-----
G----------------------------2-
D-2------------2--------------- x4
A------------------------------
E------------------------------
 
 
Свернуть Распечатать

Видео