Misc Computer Games - Another Termina, аккорды

Прокрутка
Тональность
Шрифт
100
Song: Another Termina
Instrument: Bass

Riff 1: Repeat 1X
G:-----------------------------------------------------------
D:-----------------------------------------------------------
A:---5~~~~--3-5----535/7-0-------35-----5-5-5-05-------------
E:-----------------------------------------------------------

Riff 2: Repeat 1X
G:-------------------------------------------------------
D:-------------------------------------------------------
A:-------5~~~--3~~~--5~~~~--0~~~~------------------------
E:-------------------------------------------------------

Riff 3: Repeat 2x
G:-------------------------------------------------------------
D:-------------------------------------------------------------
A:-------5~~~--3~~~--55-0~~~------5~~~--3~~~--5~~~~--0~~~~-----
E:-------------------------------------------------------------


Riff 4: Repeat 2x
G:-----------------------------------------------------------------------------
D:-----------------------------------------------------------------------------
A:-----0~~~~~~------5~~~~~~---5--6--0~~~~~~~-----------0~~~~~~~---5--6-0~~~~~~-
E:-----------------------------------------------------------------------------

These are the only parts I know. Hope it helps you out.