Misc Computer Games - Final Fantasy 5 - Pirates Ahoy, аккорды

Прокрутка
Тональность
Шрифт
100
E|-1-----5-0-1-----1-0-------7-5-3--|
B|---------------3-----1-1----------|
G|---2------------------------------|
D|----------------------------------|
A|----------------------------------|
E|----------------------------------|

E|-1-----5-0-1-----1-3-5-8---7---7-5--|
B|---------------3-------------8------|
G|---2--------------------------------|
D|------------------------------------|
A|------------------------------------|
E|------------------------------------|
 
 

Видео