Misc Computer Games - Final Fantasy 7 - Khalm Town, аккорды

Прокрутка
Тональность
Шрифт
100
E--5-3-2-3-5------------------7-5-3-5--7-8-10-7-7--|
B-------------0-3-5-7-5-5---5----------------------|
G--------------------------------------------------|
D--------------------------------------------------|
A--------------------------------------------------|
e--------------------------------------------------|


E--7-8-7-5-3~--5-7--------------7-5-3-5--2-2-3-----|
B------------------0-1-3-7-5--5--------------------|
G--------------------------------------------------|
D--------------------------------------------------|
A--------------------------------------------------|
e--------------------------------------------------|