Misc Computer Games - Final Fantasy 6 - Overworld, аккорды

Прокрутка
Тональность
Шрифт
100
This is a nifty little piece from Final Fantasy 6, when you're wondering over the
world map. Longer gaps indicate a greater pause, for those unfamiliar with the piece.

E-------8-12-8--------------------------8-12-8--------------12-
B-10-12------------12-10-12--5----10-12------------12-10-12----
G--------------------------------------------------------------
D--------------------------------------------------------------
A--------------------------------------------------------------
E--------------------------------------------------------------

E-8-10-12-15-12----10-8-10-------------------------------------
B--------------------------12-----13-12-10-----13-12-10--------
G--------------------------------------------------------------
D--------------------------------------------------------------
A--------------------------------------------------------------
E--------------------------------------------------------------


Michael Zhu
valorthegreat@idx.com.au