Misc Computer Games - Super Mario Overworld, аккорды

Прокрутка
Тональность
Шрифт
100
Main Theme:
|-12-12-12----12--15-----||--8-3----5-7-6-5--|----12-15-17-13-15-12-8-10-7-|| 
|----------13-----12-----||--5-1-5--X-X-X-X--|-----X--X--X--X--X-10-6--8-X-|| 
|-11-11-11-11-11--12--12-||--5-X-X--5-7-6-5--|-12-12-16-17-14-16--X-X--X-7-|| 
|------------------------||--5-2-5--3-5-4-3--|-10-10-14-15-12-14-10-7--9-5-|| 
|---------------------10-||------3-----------|--X--------------------------||
|-10-10-10-10-10---------||------------------|-12--------------------------||x2

|---15-14-13-11----12---------8-----8-10-|
|---17-16-15-12----13---9-10--8--10------|
|-------0---------------9-10--5-----9-10-|
|---------------10---------------10------|
|---------------------8-------------8----|
|-8--------------------------------------|

|---15-14-13-11----12---20--20-20-----|
|---17-16-15-12----13---20--20-20-----|
|-------0---------------22--22-22-----|
|---------------10--------------------|
|----------------------------------10-|
|-8-----------------------------------|

|---15-14-13-11----12---------8-----8-10-|
|---17-16-15-12----13---9-10--8--10------|
|-------0---------------9-10--5-----9-10-|
|---------------10---------------10------|
|---------------------8-------------8----|
|-8--------------------------------------|

|-------------------------|
|-----16-15-13------------|
|-----13-15-12------------|
|-----------10------------|
|-----11-13------10-10----|
|-8---------------------8-|

|---------------------------------------|
|-13-13--13--13-15--17------------13-13-|
|-13-13--13--13-15--17-17--14-12--13-13-|
|-13-13--13--13-15--17-----15-14--13-13-|
|-11-11--11--11-13--15------------11-11-|
|---------------------------------------|

|-------------------------------------|
|-13-15-17----13-13--13--13-15--17----|
|-13-15-17----13-13--13--13-15--17-17-|
|-13-15-17----13-13--13--13-15--17----|
|-11-15-15----11-11--11--11-13--16----|
|-------------------------------------|

|---------12-12-12-----12--15-----|
|-------------------13-----12-----|
|-14-12---11-11-11--11-11--12--12-|
|-15-14---------------------------|
|------------------------------10-|
|---------10-10-10--10-10---------|
 
 

Видео