Misc Computer Games - Super Mario Theme, аккорды

Прокрутка
Тональность
Шрифт
100
E:----------------|12-12-*-12-*----12---|15-*--------------|
B:----------------|-------------13--*---|12-*-x-x----------|
G:----------------|11-11-*-11-*-11-11---|12-*-x-x-12-*-x-x-|
D:----------------|---------------------|-----x-x----*-x-x-|
A:----------------|---------------------|---------10-*-x-x-|
E:----------------|10-10-*-10-*-10-10---|-*----------------|

E:8-*-x-3-*-------|--5-*-7---6-5-x-|---12-*-15-17-*-13-15-|
B:5-*-x-1-*-x-5-*-|----------------|----------------------|
G:5-*-x---*-------|x-5-x-7-x-6-5-x-|12-12-x-16-17-x-14-16-|
D:------2-*-x-5-*-|x-3-x-5-x-4-3-x-|10-10-x-14-15-x-12-14-|
A:----------x-3-*-|----------------|----------------------|
E:----------------|----------------|12--*-----------------|

E:*-12-*-8-10-7-*---|8-*-x-3-*-------|--5-*-7---6-5-x-|
B:--10-x-6--8-*-----|5-*-x-1-*-x-5-*-|----------------|
G:x-----------7-x-x-|5-*-x---*-------|x-5-x-7-x-6-5-x-|
D:x-10-x-7--9-5-x-x-|------2-*-x-5-*-|x-3-x-5-x-4-3-x-|
A:------------------|----------x-3-*-|----------------|
E:------------------|----------------|----------------|

E:---12-*-15-17-*-13-15-|*-12-*-8-10-7-*----|----15-14-13-11--*-12-|
B:----------------------|--10-x-6--8-*------|----17-16-15-12--*-13-|
G:12-12-x-16-17-x-14-16-|x-----------7-x--x-|--------0--*----------|
D:10-10-x-14-15-x-12-14-|x-10-x-7--9-5-x--x-|----------------10--*-|
A:----------------------|----------------10-|*---------------------|
E:12--*-----------------|-------------------|8-*-------------------|

E:*------8-*----8-10-|*---15-14-13-11--*-12-|*-20-*-20-20-*------|
B:*-9-10-8-*-10-*----|----17-16-15-12--*-13-|*-20-*-20-20-*------|
G:--9-10-5-*----9-10-|*-------0--*----------|*-22-*-22-22-*------|
D:-----------10-*----|----------------10--*-|--------------------|
A:8-*-----------8--*-|*---------------------|---------------10-*-|
E:-------------------|8-*-------------------|--------------------|

E:----15-14-13-11--*-12-|*------8-*----8-10-|*------------------------|
B:----17-16-15-12--*-13-|*-9-10-8-*-10-*----|----16-*-x*15-*-x*13-*-*-|
G:--------0--*----------|--9-10-5-*----9-10-|*---13-*-x*15-*-x*12-*-*-|
D:----------------10--*-|-----------10-*----|-----------------*10-*-*-|
A:*---------------------|8-*-----------8--*-|----11-*-x*13-*-x*-------|
E:8-*-------------------|-------------------|8-*----------------------|

E:(22)----*-----(22)----*-----(22)----*-----|--------|
B:----20-----*------20-----*------20-----*--|--------|
G:-------19---*--------19---*--------19---*-|--------|
D:----------17-*----------17-*----------17-*|--------|
A:----------17-*----------17-*----------17-*|--------|
E:------------------------------------------|--------|

E:-----------------|------------------------------------|
B:-----------------|------------------------------------|
G:-----------------|------------------------------------|
D:--10-*-7---8-*---|------------------------------------|
A:-----------------|(5)(5)(6)(6)(7)(7)(8)(8)(9)(9)*-----|
E:8----5---6-------|------------------------------------|

E:-----------------|--5--------5---5----|-----------------|
B:-----------------|5--*-5-5-5--*5--*---|-----------------|
G:-----------------|--------------------|--10---7---8-*---|
D:--10---7---8-*---|--------------------|-----------------|
A:-----------------|--------------------|8----5---6-------|
E:8----5---6-------|--------------------|-----------------|

E:----------------|-----------------|
B:----------------|-----------------|
G:----------------|--10---7---8-*---|
D:----------------|-----------------|
A:----------------|8----5---6-------|
E:----------------|-----------------|

E:------------20-15----------21-16----------22-19*|
B:------16-20----------17-21----------18-20-------|
G:17-17-------------18-------------19-------------|
D:------------------------------------------------|
A:------------------------------------------------|
E:------------------------------------------------|

E:--------------------------------|
B:--------------------------------|
G:--------------------------------|
D:------------------------------4-|
A:6-5-3-*-6-*-5-*---------4-*-3---|
E:----------------4-*-3-*---------|

E:------------------------------------|--5--------5---------5--|
B:------------------------------------|5--*-----5--*--5-5-5--*-|
G:----3-2-1-*-------------------------|------------------------|
D:3-2---------1-(0)-*-----------------|------------------------|
A:-------------------1-p0-*-----------|------------------------|
E:--------------------------4-*-3-*---|------------------------|

E:---------|22-----*-----22-----*-----22-----*-----|-----|
B:---------|---20-----*-----20-----*-----20-----*--|-----|
G:---------|------19---*-------19---*-------19---*-|-----|
D:---------|---------17-*---------17-*---------17-*|-----|
A:---------|---------17-*---------17-*---------17-*|-----|
E:---------|---------------------------------------|-----|

E:12-12-*-------22-----*---|--22-----*-----22-----*-------|
B:-----------------20-----*|-----20-----*-----20-----*----|
G:11-11-*-------------19---|*-------19---*-------19---*---|
D:-------------------------|------------------------------|
A:-----------------------17|*----------17*----------17*---|
E:10-10-*------------------|------------------------------|

E:12-12-*-12-*----12---|
B:-------------13--*---|
G:11-11-*-11-*-11-11---|
D:---------------------|
A:---------------------|
E:10-10-*-10-*-10-10---|

E:15-(0)(2)(3)(4)(5)(6)(7)(8)(9)(10)(11)(12)(13)(14)|
B:12--*---------------------------------------------|
G:12--*---------------------------------------------|
D:--------------------------------------------------|
A:--------------------------------------------------|
E:-*------------------------------------------------|

E:(15)(16)(17)(18)----|-*---------------12-15-----12-----|
B:--------------------|--------------13----13------8-----|
G:--------------------|-----------12---------------------|
D:--------------------|---10-(14)------------------------|
A:--------------------|10--------------------------------|
E:--------------------|----------------------------------|

E:---------------13-16-----13-----|----------------|
B:------------14----14------9-----|----------------|
G:---------13---------------------|----------------|
D:---11-15------------------------|---13-(17)-(20)-|
A:11------------------------------|13--------------|
E:--------------------------------|----------------|

E:----------18-----18-18-18-|20---------------|*---------------|
B:-----(20)-16-----16-16-16-|17---------------|*---------------|
G:(20)----------------------|-----------------|----------------|
D:--------------------------|-----------------|----------------|
A:--------------------------|-----------------|----------------|
E:--------------------------|-----------------|----------------|
 
 
Свернуть Распечатать

Видео