Misc Computer Games - Playstation VIP Theme, аккорды

Прокрутка
Тональность
Шрифт
100
(Play with wah-wah. Kill it with each number)
e-12-12-----------12-12-----------12-12-----------|
b--------15p12h15--------15p12h15--------15p12h15-|
g-------------------------------------------------|
d-------------------------------------------------| repeat
a-------------------------------------------------| many
e-------------------------------------------------| times

Then:
e-10-10-12-10-13p12--15p13--13p12-------------
b---------------------------------------------
g-------------------------------------------4-
d-------------------------------------------5-
a-------------------------------------------5-
e-------------------------------------------3-

(No wah)
e------------------------------R--------------------------------------
b------------------------------E--------------------------------------
g------------------------------P----------------------------7---5---4-
d------------------------------E----------------------------7---5---4-
a--0-0-3-0-------0-0-3-0-------A--0-2-3-3-0-2--------0-2-3--5---3---2-
e----------3-2-----------5-3---T--------------5-3-2-------------------