Misc Computer Games - Zelda 2 Mikau And Japas Jam Session, аккорды

Прокрутка
Тональность
Шрифт
100
Themes - Zelda 2: Mikau and japas jam session
Tabbed By: Harris wild
EMail: philwild@optonline.net


Japas:
--------------------------
--------------------------
--------------------------
--------------------------
------3----3--------------
----------------4---1-----


Link(Mikau):
--------------------------
--------------------------
--------------------------
--------------------------
-----------------3--------
-------1----4-------1-----


This is just the first one. bye.