Misc Computer Games - Zelda 64 Kakariko Village, аккорды

Прокрутка
Тональность
Шрифт
100
Zelda: Ocarina Of Time - Kakariko Village
Tabbed By: Simon harris
EMail: zelda_man18@hotmail.com

  I reccomend using a whammy bar in this song at some points, 
  because it bends a lot near the end of each different part. 
  Or, you can just bend with your
  fingers, either way. But whammy bar sounds better.

  1--------7----10--|--------7----10--|--10-12---12-10-7---7--7-----------|
  2---8------8------|---8-------8-----|---------7------------------10--8--|
  3-7---7-----------|-7---7-----------|-----------------------------------|
  4-----------------|-----------------|-----------------------------------|
  5-----------------|-----------------|-----------------------------------|
  6-----------------|-----------------|-----------------------------------|

  1-------------------|-------------|------------------10--|--8-7----------|
  2--8-8--7--10-8-----|-------------|-8-8--7--10-8---------|-------10--8---|
  3-----------------7-|-5-4-5/7-4---|----------------7-----|---------------|
  4-------------------|-------------|----------------------|---------------|
  5-------------------|-------------|----------------------|---------------|
  6-------------------|-------------|----------------------|---------------|

  And repeat it all again