Misc Computer Games - Zelda Oot - Sarias Song, аккорды

Прокрутка
Тональность
Шрифт
100
G:|---2-4----2-4----2-4-9-7--3-4-3-------------|
D:|-3------3------3----------------5-2---0-252-|
A:|--------------------------------------------|
E:|--------------------------------------------|

G:|---2-4----2-4----2-4-9-7--3-4-9-3-----9-4-3-|
D:|-3------3------3------------------5------5--|
A:|--------------------------------------------|
E:|--------------------------------------------|

That's all I've been able to get so far. The other part is a little tricky since
the music is a little fast. I think I'll tab out the other songs, too. Just not
in full. Only the part Link actually plays.

- Teej