Misc Traditional - Ah, Meine Liebe Augustin, аккорды

Прокрутка
Тональность
Шрифт
100
e|-------0-----------------------------------|
B|---3------3-1--0------------------0--------|
G|-------------------0-0---2-----------0--0--|
D|----------------------------0--0-----------|
A|-------------------------------------------|
E|-------------------------------------------|

e|-------0-----------------------------------|
B|---3------3-1--0---------------------------|
G|-------------------0-0---2-----------0-----|
D|----------------------------0--0-----------|
A|-------------------------------------------|
E|-------------------------------------------|

e|-------------------------------------------|
B|------------0-----------------0------------|
G|---2-----------0-0---2-----------0-0-------|
D|------0-0---------------0-0----------------|
A|-------------------------------------------|
E|-------------------------------------------|

e|-------0-----------------------------------|
B|---3------3-1--0---------------------------|
G|-------------------0-0---2-----------0-----|
D|----------------------------0--0-----------|
A|-------------------------------------------|
E|-------------------------------------------|
 
 
Свернуть Распечатать

Видео