Mono Inc. - Long live death, аккорды

Прокрутка
Тональность
Шрифт
100
|--------4-------|2--02--4--------|--------2-------|4-2-0-----------|
|2---------------|--------2-------|0---------------|--------4---2---|
|----------------|----------------|----------------|----------------|
|----------------|----------------|----------------|----------------|
|----------------|----------------|----------------|----------------|
|----------------|----------------|----------------|----------------|

|--------4-------|2--02--45-------|--------2-------|4-2-0-----------|
|2---------------|----------------|0---------------|--------4---2---|
|----------------|----------------|----------------|----------------|
|----------------|----------------|----------------|----------------|
|----------------|----------------|----------------|----------------|
|----------------|----------------|----------------|----------------|


C#m                   F#        F#m
Who's gonna bring the cinnamon?
B                     C#m
Who's gonna bring the gloves?
C#m                   F#
Who's gonna bring the lavender?
B                     C#m
Who's gonna bring the torch?

C#m                   F#m
Who's gonna heal the easy girls?
B                     C#m
Who's gonna heal the nuns?
C#m                   F#m
Who's gonna heal the mothers in black?
B                     G#
Who's gonna heal their sons?

~      C#5     C#m           F#m           B
     Long live Death!
C#m            C#m           F#m           B
     Long live Death!
C#m            |

C#m                   F#m
Who's gonna bring the vinegar?
B                     C#m
Who's gonna bring the rod?
C#m                   F#m
Who's gonna bring the junipers?
B                     C#m
Who's gonna bring the wormwood?

C#m                   F#m
Who's gonna heal the noblemen?
B                     C#m
Who's gonna heal the dames?
C#m                   F#m
Who's gonna heal the widows in black?
B                     G#m  G#
Who's gonna ease the pain?

~      C#m     C#m           F#m           B
     Long live Death!
C#m            C#m           F#m           B
     Long live Death!
C#m            |

Long live Death!
Long live Death!
Long live Death!
Long live Death!
Long live Death!
Long live Death!
Long live Death!
Long live Death!
 
 
Свернуть Распечатать

Видео