Muse - Plug In Baby, аккорды

Прокрутка
Тональность
Шрифт
100
E|-----------------------------------------------------------|
B|-----------------------------------------------------------|
G|--------------5-----5-7-78-7-5-------------------5-----5-7-|
D|--5-7-8-5-7-8---7-8------------8-7---5-7-8-5-7-8---7-8-----|
A|-----------------------------------------------------------|
E|-----------------------------------------------------------|
 
E|-----------------------------------------|
B|-----------------------------------------|
G|-78-7-5-7-5--7------7-9-10-9-7-6-7-5-5-0-|
D|-----------------0-----------------------|
A|-----------------------------------------|
E|-----------------------------------------|
 
 

Видео