Muse - Butterflies And Hurricanes (bass), аккорды

Прокрутка
Тональность
Шрифт
100
First Verse
G|----------------------|----------------------|
D|---12-12---12-12---12-|---12-12---12---12-12-|
A|-5-------5-------5----|-5-------5----5-------| x 9
E|----------------------|----------------------|

(The above part can be played by using left hand to play A string,
right hand playing D by finger tapping notes)

G|------------------|
D|--12-11-10-9-8-7--|
A|------------------|
E|------------------|

G|-----------------|-----------------|
D|-6-6-6-6-6-6-6-6-|-2-2-2-2-2-2-2-2-|
A|-----------------|-----------------|
E|-----------------|-----------------|

G|-----------------|-----------------|
D|-7-7-7-7-7-7-7-7-|-7-7-7-7-7-7-7-7-|
A|-----------------|-----------------|
E|-----------------|-----------------|

G|----------------------|----------------------|
D|---12-12---12-12---12-|---12-12---12---12-12-|
A|-5-------5-------5----|-5-------5----5-------| x 5
E|----------------------|----------------------|

G|------------------|
D|--12-11-10-9-8-7--|
A|------------------|
E|------------------|

G|-----------------|-----------------|
D|-6-6-6-6-6-6-6-6-|-2-2-2-2-2-2-2-2-|
A|-----------------|-----------------|
E|-----------------|-----------------|

G|-----------------|-----------------|
D|-7-7-7-7-7-7-7-7-|-7-7-7-7-7-7-7-7-|
A|-----------------|-----------------|
E|-----------------|-----------------|

Chorus
G|-----------------|-------------------------|
D|-----------------|-------------------------|
A|-----------------|-------------------------|
E|-6-6-6-6-6-6-6-6-|-10-10-10-10-10-10-10-10-|

G|-----------------|-------------------------|
D|-----------------|-------------------------|
A|-----------------|-------------------------|
E|-6-6-6-6-6-6-6-6-|-10-10-10-10-10-10-10-10-|

G|-----------------|-------------------------|
D|-----------------|-------------------------|
A|-----------------|-------------------------|
E|-6-6-6-6-6-6-6-6-|-13-13-13-13-13-13-13-13-|

G|-------------------------|-------------------------|
D|-------------------------|-------------------------|
A|-------------------------|-------------------------|
E|-14-14-14-14-14-14-14-14-|-15-15-15-15-15-15-15-15-|

G|-----------------|-------------------------|
D|-----------------|-------------------------|
A|-----------------|-------------------------|
E|-6-6-6-6-6-6-6-6-|-10-10-10-10-10-10-10-10-|

G|-----------------|-------------------------|
D|-----------------|-------------------------|
A|-----------------|-------------------------|
E|-6-6-6-6-6-6-6-6-|-10-10-10-10-10-10-10-10-|

G|-----------------|
D|-----------------|
A|-----------------|
E|-5-(let ring)----|

Bridge
G|-----------------|-----------------|
D|-----------------|-----------------|
A|---7-4-----------|---7-4-----------|
E|-5-----6-3-6-----|-5-----6-3-6-----|

Second Verse
G|-------------------------|
D|-------------------------|
A|-------------------------| x 5
E|-10-10-10-10-10-10-10-10-|

G|-------------------------|
D|-------------------------|
A|-------------------------|
E|-10-9-8-7-6-5------------|

G|-----------------|-----------------|
D|-----------------|-----------------|
A|-----------------|-----------------|
E|-4-4-4-4-4-4-4-4-|-0-0-0-0-0-0-0-0-|

G|-----------------|-----------------|
D|-----------------|-----------------|
A|-----------------|-----------------|
E|-5-5-5-5-5-5-5-5-|-5-5-5-5-5-5-5-5-|

G|-------------------------|
D|-------------------------|
A|-------------------------| x 5
E|-10-10-10-10-10-10-10-10-|

G|-------------------------|
D|-------------------------|
A|-------------------------|
E|-10-9-8-7-6-5------------|

G|-----------------|-----------------|
D|-----------------|-----------------|
A|-----------------|-----------------|
E|-4-4-4-4-4-4-4-4-|-0-0-0-0-0-0-0-0-|

G|-----------------|-----------------|
D|-----------------|-----------------|
A|-----------------|-----------------|
E|-5-5-5-5-5-5-5-5-|-5-5-5-5-5-5-5-5-|

Bridge 2
G|-----------------|-------------------| 
D|-----------------|-------------------|
A|---7-4-----------|---7-4-------------|
E|-5-----6-3-6-----|-5-----6-3-6-------|
                             } x8
G|-----------------|-------------------|
D|-----------------|-------------------|
A|---9-6-----------|---9-6-------------|
E|-7-----8-5-8-----|-7-----8-5-8-------| /

Vamp Section
G|-------------------------|
D|-------------------------|
A|-------------------------| x 14
E|-10-10-10-10-10-10-10-10-|

G|-------------------------|
D|-------------------------|
A|-------------------------|
E|-10-(let ring)-----------|

Outro
G|-----------------|-----------------|
D|-----------------|-----------------|
A|---7-4-----------|---7-4-----------|
E|-5-----6-3-6-----|-5-----6-3-6-----|

G|-----------------|
D|-----------------|
A|-----------------|
E|-10-(let ring)---|

Order of Song

First Verse
Chorus
Bridge
Second Verse
Chorus
Bridge 2
Vamp Section
---piano solo---
First verse
Chorus
Outro
 
 

Видео