Muse - Eternally Missed, аккорды

Прокрутка
Тональность
Шрифт
100
E||--------|--------|--------|--------|--------|--------|
B||--------|--------|--------|--------|--------|--------|
G||--------|--------|--------|--------|--------|--------|
D||--------|--------|--------|--------|--------|--------|
A||--------|--------|--------|--------|--------|--------|
E||--------|--------|--------|--------|--------|--------|
 
----------------------------------|
----------------------------------|
------9-9-----9-9-----9-9-----9-9-|
--7-7-----7-7-----7-7-----7-7-----|
----------------------------------|
----------------------------------|

------------------------------------------|----------------------------------|
------------------------------------------|----------------------------------|
------10-10-----10-10-----10-10-----10-10-|------9-9-----9-9-----9-9-----9-9-|
--7-7-------7-7-------7-7-------7-7-------|--7-7-----7-7-----7-7-----7-7-----|
------------------------------------------|----------------------------------|
------------------------------------------|----------------------------------|

------------------------------------------|----------------------------------|
------------------------------------------|----------------------------------|
------10-10-----10-10-----10-10-----10-10-|------9-9-----9-9-----9-9-----9-9-|
--7-7-------7-7-------7-7-------7-7-------|--7-7-----7-7-----7-7-----7-7-----|
------------------------------------------|----------------------------------|
------------------------------------------|----------------------------------|

------------------------------------------|----------------------------------|
------------------------------------------|----------------------------------|
------10-10-----10-10-----10-10-----10-10-|------9-9-----9-9-----9-9-----9-9-|
--7-7-------7-7-------7-7-------7-7-------|--7-7-----7-7-----7-7-----7-7-----|
------------------------------------------|----------------------------------|
------------------------------------------|----------------------------------|

------------------------------------------|----------------------------------|
------------------------------------------|----------------------------------|
------10-10-----10-10-----10-10-----10-10-|------9-9-----9-9-----9-9-----9-9-|
--7-7-------7-7-------7-7-------7-7-------|--7-7-----7-7-----7-7-----7-7-----|
------------------------------------------|----------------------------------|
------------------------------------------|----------------------------------|

------------------------------------------|----------------------------------|
------------------------------------------|----------------------------------|
------10-10-----10-10-----10-10-----10-10-|------9-9-----9-9-----9-9-----9-9-|
--7-7-------7-7-------7-7-------7-7-------|--7-7-----7-7-----7-7-----7-7-----|
------------------------------------------|----------------------------------|
------------------------------------------|----------------------------------|

------------------------------------------|----------------------------------|
------------------------------------------|----------------------------------|
------10-10-----10-10-----10-10-----10-10-|------9-9-----9-9-----9-9-----9-9-|
--7-7-------7-7-------7-7-------7-7-------|--7-7-----7-7-----7-7-----7-7-----|
------------------------------------------|----------------------------------|
------------------------------------------|----------------------------------|

------------------------------------------|----------------------------------|
------------------------------------------|----------------------------------|
------10-10-----10-10-----10-10-----10-10-|------9-9-----9-9-----9-9-----9-9-|
--7-7-------7-7-------7-7-------7-7-------|--7-7-----7-7-----7-7-----7-7-----|
------------------------------------------|----------------------------------|
------------------------------------------|----------------------------------|

------------------------------------------|----------------------------------|
------------------------------------------|----------------------------------|
------10-10-----10-10-----10-10-----10-10-|------9-9-----9-9-----9-9-----9-9-|
--7-7-------7-7-------7-7-------7-7-------|--7-7-----7-7-----7-7-----7-7-----|
------------------------------------------|----------------------------------|
------------------------------------------|----------------------------------|

----------------------------------|----------------------------|
----------------------------------|--1--1--1--1-1-1--1--1--1-1-|
--10--10--10--10--10--10--10--10--|--0--0--0--0-0-0--0--0--0-0-|
--7---7---7---7---7---7---7---7---|--2--2--2--2-2-2--2--2--2-2-|
----------------------------------|--3--3--3--3-3-3--3--3--3-3-|
----------------------------------|----------------------------|

-----------------------------|--3--3--3--3--3--3--3-3-3-3-|
--1--1--1--1-1-1--1--1-1-1-1-|--3--3--3--3--3--3--3-3-3-3-|
--0--0--0--0-0-0--0--0-0-0-0-|--0--0--0--0--0--0--0-0-0-0-|
--2--2--2--2-2-2--2--2-2-2-2-|--0--0--0--0--0--0--0-0-0-0-|
--3--3--3--3-3-3--3--3-3-3-3-|--2--2--2--2--2--2--2-2-2-2-|
-----------------------------|--3--3--3--3--3--3--3-3-3-3-|

--3--3--3-3-3-3-3--3--3-3-3-3-|----------------------------|
--3--3--3-3-3-3-3--3--3-3-3-3-|----------------------------|
--0--0--0-0-0-0-0--0--0-0-0-0-|--2--2--2--2--2-2-2-2-2--2--|
--0--0--0-0-0-0-0--0--0-0-0-0-|--2--2--2--2--2-2-2-2-2--2--|
--2--2--2-2-2-2-2--2--2-2-2-2-|--2--2--2--2--2-2-2-2-2--2--|
--3--3--3-3-3-3-3--3--3-3-3-3-|--0--0--0--0--0-0-0-0-0--0--|

----------------------------|--------------------------|
----------------------------|--1--1--1--1--1--1--1--1--|
--2--2--2--2-2-2--2--2--2-2-|--2--2--2--2--2--2--2--2--|
--2--2--2--2-2-2--2--2--2-2-|--3--3--3--3--3--3--3--3--|
--2--2--2--2-2-2--2--2--2-2-|--3--3--3--3--3--3--3--3--|
--0--0--0--0-0-0--0--0--0-0-|--1--1--1--1--1--1--1--1--|

--------------------------|--1--1--1--1-1-1--1--1--1-1-|
--1--1--1--1--1--1--1--1--|--3--3--3--3-3-3--3--3--3-3-|
--2--2--2--2--2--2--2--2--|--2--2--2--2-2-2--2--2--2-2-|
--3--3--3--3--3--3--3--3--|--0--0--0--0-0-0--0--0--0-0-|
--3--3--3--3--3--3--3--3--|----------------------------|
--1--1--1--1--1--1--1--1--|----------------------------|

--1--1--1--1-1-1--1--1-1-1-1-|----------------------------|
--3--3--3--3-3-3--3--3-3-3-3-|----------------------------|
--2--2--2--2-2-2--2--2-2-2-2-|--4--4--4--4-4-4--4--4--4-4-|
--0--0--0--0-0-0--0--0-0-0-0-|--5--5--5--5-5-5--5--5--5-5-|
-----------------------------|--5--5--5--5-5-5--5--5--5-5-|
-----------------------------|--3--3--3--3-3-3--3--3--3-3-|

----------------------------|-----------------------------|
----------------------------|-----------------------------|
--4--4--4--4-4-4-4-4--4--4--|-----------------------------|
--5--5--5--5-5-5-5-5--5--5--|--------7----------5---------|
--5--5--5--5-5-5-5-5--5--5--|-------------5-6-7---7-6-----|
--3--3--3--3-3-3-3-3--3--3--|--8/-5-------------------8-5-|

-----------------------------|-----------------------------|
-----------------------------|-----------------------------|
-----------------------------|-----------------------------|
--------7----------5---------|--------7----------5---------|
-------------5-6-7---7-6-----|-------------5-6-7---7-6-----|
--8/-5-------------------8-5-|--8--5-------------------8-5-|

-----------------------------|
-----------------------------|
-----------------------------|
--------7----------5---------|
-------------5-6-7---7-6-----|
--8--5-------------------8/5-|

--------|--------|--------|--------|--------|--------|
--------|--------|--------|--------|--------|--------|
--------|--------|--------|--------|--------|--------|
--------|--------|--------|--------|--------|--------|
--------|--------|--------|--------|--------|--------|
--------|--------|--------|--------|--------|--------|

--------|--------|--------|--------|--------|--------|
--------|--------|--------|--------|--------|--------|
--------|--------|--------|--------|--------|--------|
--------|--------|--------|--------|--------|--------|
--------|--------|--------|--------|--------|--------|
--------|--------|--------|--------|--------|--------|

--------|--------|--------|----------------------------------|
--------|--------|--------|----------------------------------|
--------|--------|--------|--10--10--10--10--10--10--10--10--|
--------|--------|--------|--7---7---7---7---7---7---7---7---|
--------|--------|--------|----------------------------------|
--------|--------|--------|----------------------------------|

----------------------------|-----------------------------|
--1--1--1--1-1-1--1--1--1-1-|--1--1--1--1-1-1--1--1-1-1-1-|
--0--0--0--0-0-0--0--0--0-0-|--0--0--0--0-0-0--0--0-0-0-0-|
--2--2--2--2-2-2--2--2--2-2-|--2--2--2--2-2-2--2--2-2-2-2-|
--3--3--3--3-3-3--3--3--3-3-|--3--3--3--3-3-3--3--3-3-3-3-|
----------------------------|-----------------------------|

--3--3--3--3--3--3--3-3-3-3-|--3--3--3-3-3-3-3--3--3-3-3-3-|
--3--3--3--3--3--3--3-3-3-3-|--3--3--3-3-3-3-3--3--3-3-3-3-|
--0--0--0--0--0--0--0-0-0-0-|--0--0--0-0-0-0-0--0--0-0-0-0-|
--0--0--0--0--0--0--0-0-0-0-|--0--0--0-0-0-0-0--0--0-0-0-0-|
--2--2--2--2--2--2--2-2-2-2-|--2--2--2-2-2-2-2--2--2-2-2-2-|
--3--3--3--3--3--3--3-3-3-3-|--3--3--3-3-3-3-3--3--3-3-3-3-|

----------------------------|----------------------------|
----------------------------|----------------------------|
--2--2--2--2--2-2-2-2-2--2--|--2--2--2--2-2-2--2--2--2-2-|
--2--2--2--2--2-2-2-2-2--2--|--2--2--2--2-2-2--2--2--2-2-|
--2--2--2--2--2-2-2-2-2--2--|--2--2--2--2-2-2--2--2--2-2-|
--0--0--0--0--0-0-0-0-0--0--|--0--0--0--0-0-0--0--0--0-0-|

--------------------------|--------------------------|
--1--1--1--1--1--1--1--1--|--1--1--1--1--1--1--1--1--|
--2--2--2--2--2--2--2--2--|--2--2--2--2--2--2--2--2--|
--3--3--3--3--3--3--3--3--|--3--3--3--3--3--3--3--3--|
--3--3--3--3--3--3--3--3--|--3--3--3--3--3--3--3--3--|
--1--1--1--1--1--1--1--1--|--1--1--1--1--1--1--1--1--|

--1--1--1--1-1-1--1--1--1-1-|--1--1--1--1-1-1--1--1-1-1-1-|
--3--3--3--3-3-3--3--3--3-3-|--3--3--3--3-3-3--3--3-3-3-3-|
--2--2--2--2-2-2--2--2--2-2-|--2--2--2--2-2-2--2--2-2-2-2-|
--0--0--0--0-0-0--0--0--0-0-|--0--0--0--0-0-0--0--0-0-0-0-|
----------------------------|-----------------------------|
----------------------------|-----------------------------|

----------------------------|----------------------------|
----------------------------|----------------------------|
--4--4--4--4-4-4--4--4--4-4-|--4--4--4--4-4-4-4-4--4--4--|
--5--5--5--5-5-5--5--5--5-5-|--5--5--5--5-5-5-5-5--5--5--|
--5--5--5--5-5-5--5--5--5-5-|--5--5--5--5-5-5-5-5--5--5--|
--3--3--3--3-3-3--3--3--3-3-|--3--3--3--3-3-3-3-3--3--3--|

-----------------------------|-----------------------------|
-----------------------------|-----------------------------|
-----------------------------|-----------------------------|
--------7----------5---------|--------7----------5---------|
-------------5-6-7---7-6-----|-------------5-6-7---7-6-----|
--8/-5-------------------8-5-|--8/-5-------------------8-5-|

-----------------------------|-----------------------------|
-----------------------------|-----------------------------|
-----------------------------|-----------------------------|
--------7----------5---------|--------7----------5---------|
-------------5-6-7---7-6-----|-------------5-6-7---7-6-----|
--8--5-------------------8-5-|--8--5-------------------8/5-|

-------------------------|-------------------------------|
--5----5----5----5-------|-------------------------------|
-------------------7-5-7-|-------------------5---5---5---|
-------------------------|--7------------5-7---7---7---7-|
-------------------------|-----------5-7-----------------|
-------------------------|-------5-8---------------------|

---------------------------|-------------------------------|
--5----5----5----5---------|-------------------------------|
-------------------7-5h7h5-|-------------------5---5---5---|
---------------------------|--7------------5/7---7---7---7-|
---------------------------|-----------5-7-----------------|
---------------------------|-------5-8---------------------|

--------------------------|-----------------------------------|
--5---8-5---8-5---8-5---8-|-----------------------------------|
--------------------------|--7r-7-5---------------------------|
--------------------------|---------7-5-5h7h5-------------5-7-|
--------------------------|-------------------7-5-----5-7-----|
--------------------------|-----------------------8-5---------|

-------------------------|--------------------------|--12----------10------|
-------------------------|--------------------------|----------------------|
--9----10----11----12----|--13----14----15----17r---|----------------------|
-------------------------|--------------------------|----------------------|
-------------------------|--------------------------|----------------------|
-------------------------|--------------------------|----------------------|

--8----10----7--------|------7----5--------|--8--------10--12------|
----------------------|--------------------|-----------------------|
----------------------|--------------------|-----------------------|
----------------------|--------------------|-----------------------|
----------------------|--------------------|-----------------------|
----------------------|--------------------|-----------------------|

--13----12----10--------|--7--------8------8--|--10----12/-----------|
------------------------|---------------------|----------------------|
------------------------|---------------------|----------------------|
------------------------|---------------------|----------------------|
------------------------|---------------------|----------------------|
------------------------|---------------------|----------------------|

--10/---------------|------------------|------------------|
--------------------|------------------|------------------|
--------------------|------------------|------------------|
--------------------|------------------|------------------|
--------------------|------------------|------------------|
--------------------|------------------|------------------|

----------------------------------|------------------------------------------|
----------------------------------|------------------------------------------|
------9-9-----9-9-----9-9-----9-9-|------10-10-----10-10-----10-10-----10-10-|
--7-7-----7-7-----7-7-----7-7-----|--7-7-------7-7-------7-7-------7-7-------|
----------------------------------|------------------------------------------|
----------------------------------|------------------------------------------|

----------------------------------|------------------------------------------|
----------------------------------|------------------------------------------|
------9-9-----9-9-----9-9-----9-9-|------10-10-----10-10-----10-10-----10-10-|
--7-7-----7-7-----7-7-----7-7-----|--7-7-------7-7-------7-7-------7-7-------|
----------------------------------|------------------------------------------|
----------------------------------|------------------------------------------|

----------------------------------|----------------------------------|
----------------------------------|----------------------------------|
------9-9-----9-9-----9-9-----9-9-|--10--10--10--10--10--10--10--10--|
--7-7-----7-7-----7-7-----7-7-----|--7---7---7---7---7---7---7---7---|
----------------------------------|----------------------------------|
----------------------------------|----------------------------------|

----------------------------|-----------------------------|
--1--1--1--1-1-1--1--1--1-1-|--1--1--1--1-1-1--1--1-1-1-1-|
--0--0--0--0-0-0--0--0--0-0-|--0--0--0--0-0-0--0--0-0-0-0-|
--2--2--2--2-2-2--2--2--2-2-|--2--2--2--2-2-2--2--2-2-2-2-|
--3--3--3--3-3-3--3--3--3-3-|--3--3--3--3-3-3--3--3-3-3-3-|
----------------------------|-----------------------------|

--3--3--3--3--3--3--3-3-3-3-|--3--3--3-3-3-3-3--3--3-3-3-3-|
--3--3--3--3--3--3--3-3-3-3-|--3--3--3-3-3-3-3--3--3-3-3-3-|
--0--0--0--0--0--0--0-0-0-0-|--0--0--0-0-0-0-0--0--0-0-0-0-|
--0--0--0--0--0--0--0-0-0-0-|--0--0--0-0-0-0-0--0--0-0-0-0-|
--2--2--2--2--2--2--2-2-2-2-|--2--2--2-2-2-2-2--2--2-2-2-2-|
--3--3--3--3--3--3--3-3-3-3-|--3--3--3-3-3-3-3--3--3-3-3-3-|

----------------------------|----------------------------|
----------------------------|----------------------------|
--2--2--2--2--2-2-2-2-2--2--|--2--2--2--2-2-2--2--2--2-2-|
--2--2--2--2--2-2-2-2-2--2--|--2--2--2--2-2-2--2--2--2-2-|
--2--2--2--2--2-2-2-2-2--2--|--2--2--2--2-2-2--2--2--2-2-|
--0--0--0--0--0-0-0-0-0--0--|--0--0--0--0-0-0--0--0--0-0-|

--------------------------|--------------------------|
--1--1--1--1--1--1--1--1--|--1--1--1--1--1--1--1--1--|
--2--2--2--2--2--2--2--2--|--2--2--2--2--2--2--2--2--|
--3--3--3--3--3--3--3--3--|--3--3--3--3--3--3--3--3--|
--3--3--3--3--3--3--3--3--|--3--3--3--3--3--3--3--3--|
 
 

Видео