Muse - Plug In Baby, аккорды

Прокрутка
Тональность
Шрифт
100
Riff А
  F#                      G                      D
E|-------------------------------------------------------------------------|
B|-----------------------7h8p7---------------------------7-7h8p7---7---7---|
G|-----6-----6-7---6-7-9-------9-7-6---6-7---6-7-9-6-7-9---------9---9---7-|
D|-8-9---8-9-----9-------------------9-----9-------------------------------|
A|-------------------------------------------------------------------------|
E|-------------------------------------------------------------------------|
 
E|------------------------------|
B|---------7-9-10-9-7-6-7-------|
G|-------7----------------7---7-| x2
D|-7-0-7--------------------7---|
A|------------------------------|
E|------------------------------|

  F#                      G
E|-------------------------------------|
B|-----------------------7h8p7---------|
G|-----6-----6-7---6-7-9-------9-7-6---|
D|-8-9---8-9-----9-------------------9-|
A|-------------------------------------|
E|-------------------------------------|

             D     F#
I've exposed your lies, baby
               G
The underneath is no big surprise
       D      F#
Now it's time for changing
         G
And cleansing everything
           D
To forget your love

F#

G         Bm
 My plug in baby
F#       G
Crucifies my enemies
             Bm
When I'm tired of giving
      F#
wooohoohoo
G          Bm
 My plug in baby
     F#        G
In unbroken virgin realities
           D
And tired of living

Riff A

Don't confuse
Baby you?re gonna loose
Your own game
Change me
And replace the envying
To forget your love

My plug in baby
Crucifies my enemies
When I'm tired of giving
wwooohoohoo

My plug in baby
In unbroken virgin realities
And tired of living

Riff А till end
 
 

Видео