Muse - Tsp The Small Print, аккорды

Прокрутка
Тональность
Шрифт
100
Main riff
e|-----------------|
B|---------3-------|
G|-----------------|
D|-3-4-3-4---4-3-4-|
A|-----------------|
D|-----------------|
 
BASS PART (after Main riff x4)
e|--------------------------------------------------------------------|
B|--------------------------------------------------------------------|
G|--------------------------------------------------------------------|
D|--------------------------------------------------------------------|
A|--------------------------------------------------------------------|
D|-9-9-9-9-9-9-9-9--4-4-4-4-4-4-4-4--0-0-0-0-0-0-0-0--4-4-4-4-4-4-4-4-|

VERSE: (Guitar)
e|-----------------------------------------------------------------
B|-----------------------------------------------------------------
G|-----------------------------------------------------------------
D|-----------------------------------------------------------------
A|-5-5-5-5-5-5-5-5-5-5-5-5--7-7-7-7--9-9-9-9-9-9-9-9--10-10-10-10--
D|-----------------------------------------------------------------

-----------------------------------------------------------------------
-----------------------------------------------------------------------
-----------------------------------------------------------------------
-----------------------------------------------------------------------
-12-12-12-12--14-14-14-14-14-14-14-14-14-14-14-14-14-14-14-14-14-14-14-
-----------------------------------------------------------------------

-----------------------------------------|
-----------------------------------------|
-----------------------------------------|
-----------------------------------------|
-14-14-14-14-14--13-13-13-13-13-13-13-13-|
-----------------------------------------|

VERSE: (Bass)
e|------------------------------------------------------------------------
B|------------------------------------------------------------------------
G|------------------------------------------------------------------------
D|------------------------------------------------------------------------
A|------------------------------------------------------------------------
D|-9-9-9-9-9-9-9-9-9-9-9-9--11-11-11-11--12-12-12-12-12-12-12-12-12-12-12-

-----------------------------------------------------------------------
-----------------------------------------------------------------------
-----------------------------------------------------------------------
-----------------------------------------------------------------------
-----------------------------------------------------------------------
-12--16-16-16-16--17-17-17-17-17-17-17-17-17-17-17-17--16-16-16-16--14-

---------------------------------------|
---------------------------------------|
---------------------------------------|
---------------------------------------|
---------------------------------------|
-14-14-14-14-14-14-14--4-4-4-4-4-4-4-4-|


BRIDGE:
(Guitar)           (together with BASS PART)
e|-----------------|    |-----------------|    |
B|---------3-------|    |-----------------|    |
G|-----------------| x7 |-----------------| x1 |
D|-3-4-3-4---4-3-4-| x7 |-4h3-4h3-4h3-4h3-| x1 |
A|-----------------|    |-----------------|    |
D|-----------------|    |-----------------|    |

CHORUS: (both - BASS only plays on the deep D-String !)
e|---------------------------------------------------------------------
B|---------------------------------------------------------------------
G|---------------------------------------------------------------------
D|-9--9-9-9-9-9-9--4-4-4-4-4-4-4-4--0-0-0-0-0-0-0-0--4-4-4-4-4-4-4-4---
A|-9--9-9-9-9-9-9--4-4-4-4-4-4-4-4--0-0-0-0-0-0-0-0--4-4-4-4-4-4-4-4---
D|-9--9-9-9-9-9-9--4-4-4-4-4-4-4-4--0-0-0-0-0-0-0-0--4-4-4-4-4-4-4-4---

---------------------------------------------------------------------
---------------------------------------------------------------------
---------------------------------------------------------------------
-9--9-9-9-9-9-9--4-4-4-4-4-4-4-4--0-0-0-0-0-0-0-0--4-4-4-4-4-4-4-4---
-9--9-9-9-9-9-9--4-4-4-4-4-4-4-4--0-0-0-0-0-0-0-0--4-4-4-4-4-4-4-4---
-9--9-9-9-9-9-9--4-4-4-4-4-4-4-4--0-0-0-0-0-0-0-0--4-4-4-4-4-4-4-4---

-----------------------------------------------------------------
-----------------------------------------------------------------
-----------------------------------------------------------------
-14--14-14-14-14-14-14--16-16-16-16-16-16-16-16--9--9-9-9-9-9-9--
-14--14-14-14-14-14-14--16-16-16-16-16-16-16-16--9--9-9-9-9-9-9--
-14--14-14-14-14-14-14--16-16-16-16-16-16-16-16--9--9-9-9-9-9-9--

----------------------------------------------------
----------------------------------------------------
----------------------------------------------------
-0-0-0-0-0-0-0-0--4-4-4-4-4-4-4-4-4-4-4-4-4-4-4-4---
-0-0-0-0-0-0-0-0--4-4-4-4-4-4-4-4-4-4-4-4-4-4-4-4---
-0-0-0-0-0-0-0-0--4-4-4-4-4-4-4-4-4-4-4-4-4-4-4-4---

------------------------------------------------------------------
------------------------------------------------------------------
------------------------------------------------------------------
-14--14-14-14-14-14-14--7-7-7-7-7-7-7-7--12-12-12-12-12-12-12-12--
-14--14-14-14-14-14-14--7-7-7-7-7-7-7-7--12-12-12-12-12-12-12-12--
-14--14-14-14-14-14-14--7-7-7-7-7-7-7-7--12-12-12-12-12-12-12-12--

-------------------------------------------------------------------------
-------------------------------------------------------------------------
-------------------------------------------------------------------------
-4-4-4-4-4-4-4-4--5-5-5-5-5-5-5-5-5-5-5-5-5-5-5-5--17-17-17-17-17-17-17--
-4-4-4-4-4-4-4-4--5-5-5-5-5-5-5-5-5-5-5-5-5-5-5-5--17-17-17-17-17-17-17--
-4-4-4-4-4-4-4-4--5-5-5-5-5-5-5-5-5-5-5-5-5-5-5-5--17-17-17-17-17-17-17--

----------------------------|
----------------------------|
----------------------------|
-17-17-17-17-17-17-17-17-17-|
-17-17-17-17-17-17-17-17-17-|
-17-17-17-17-17-17-17-17-17-|

INTRO TO VERSE: (Guitar) (together with BASS VERSЕ)
e|-----------------------------------------------------------------
B|-----------------------------------------------------------------
G|-----------------------------------------------------------------
D|-----------------------------------------------------------------
A|-5-5-5-5-5-5-5-5-5-5-5-5--7-7-7-7--9-9-9-9-9-9-9-9--10-10-10-10--
D|-----------------------------------------------------------------

----------------------------------|
----------------------------------|
----------------------------------|
----------------------------------|
-12-12-12-12--14~--17~--19-17-16~-|
----------------------------------|

LITTLЕ SOLO: (Guitar)
e|---------------------------------------------------------------------|
B|-3--4h3-4h3-4h3--4h3-4h3-4h3--4h3-4h3-4h3--4h3-4h3-4h3--4h3-4h3-4h3~-|
G|---------------------------------------------------------------------|
D|---------------------------------------------------------------------|
A|---------------------------------------------------------------------|
D|---------------------------------------------------------------------|

INTRO TO BRIDGE:(Guitar)
e|---------------------------------------------------------------------|
B|----------------------3-4-3-------------------------------3----------|
G|---------3-------------------4-3------------3------------------------|
D|-3-4-3-4---4-3-4--3-4-----------4---3-4-3-4---4-3-4--3-4---4-3-4-3-4-|
A|---------------------------------------------------------------------|
D|---------------------------------------------------------------------|

CHORUS 2 (both) (no longer notes !)
e|----------------------------------------------------------------------
B|----------------------------------------------------------------------
G|----------------------------------------------------------------------
D|-9-9-9-9-9-9-9-9--4-4-4-4-4-4-4-4--0-0-0-0-0-0-0-0--4-4-4-4-4-4-4-4---
A|-9-9-9-9-9-9-9-9--4-4-4-4-4-4-4-4--0-0-0-0-0-0-0-0--4-4-4-4-4-4-4-4---
D|-9-9-9-9-9-9-9-9--4-4-4-4-4-4-4-4--0-0-0-0-0-0-0-0--4-4-4-4-4-4-4-4---

----------------------------------------------------------------------
----------------------------------------------------------------------
----------------------------------------------------------------------
-9-9-9-9-9-9-9-9--4-4-4-4-4-4-4-4--0-0-0-0-0-0-0-0--4-4-4-4-4-4-4-4---
-9-9-9-9-9-9-9-9--4-4-4-4-4-4-4-4--0-0-0-0-0-0-0-0--4-4-4-4-4-4-4-4---
-9-9-9-9-9-9-9-9--4-4-4-4-4-4-4-4--0-0-0-0-0-0-0-0--4-4-4-4-4-4-4-4---

--------------------------------------------------------------------
--------------------------------------------------------------------
--------------------------------------------------------------------
-14-14-14-14-14-14-14-14--16-16-16-16-16-16-16-16--9-9-9-9-9-9-9-9--
-14-14-14-14-14-14-14-14--16-16-16-16-16-16-16-16--9-9-9-9-9-9-9-9--
-14-14-14-14-14-14-14-14--16-16-16-16-16-16-16-16--9-9-9-9-9-9-9-9--

----------------------------------------------------
----------------------------------------------------
----------------------------------------------------
-0-0-0-0-0-0-0-0--4-4-4-4-4-4-4-4-4-4-4-4-4-4-4-4---
-0-0-0-0-0-0-0-0--4-4-4-4-4-4-4-4-4-4-4-4-4-4-4-4---
-0-0-0-0-0-0-0-0--4-4-4-4-4-4-4-4-4-4-4-4-4-4-4-4---

--------------------------------------------------------------------
--------------------------------------------------------------------
--------------------------------------------------------------------
-14-14-14-14-14-14-14-14--7-7-7-7-7-7-7-7--12-12-12-12-12-12-12-12--
-14-14-14-14-14-14-14-14--7-7-7-7-7-7-7-7--12-12-12-12-12-12-12-12--
-14-14-14-14-14-14-14-14--7-7-7-7-7-7-7-7--12-12-12-12-12-12-12-12--

-------------------------------------------------------------------------
-------------------------------------------------------------------------
-------------------------------------------------------------------------
-4-4-4-4-4-4-4-4--5-5-5-5-5-5-5-5-5-5-5-5-5-5-5-5--17-17-17-17-17-17-17--
-4-4-4-4-4-4-4-4--5-5-5-5-5-5-5-5-5-5-5-5-5-5-5-5--17-17-17-17-17-17-17--
-4-4-4-4-4-4-4-4--5-5-5-5-5-5-5-5-5-5-5-5-5-5-5-5--17-17-17-17-17-17-17--

---------------------------------|
---------------------------------|
---------------------------------|
-17-17-17-17-17-17-17-17-17----9-|
-17-17-17-17-17-17-17-17-17----9-|
-17-17-17-17-17-17-17-17-17----9-|

Structure:

Main Riff - Intro [Guitar] x12
Bass Part [Bass] (after Main Riff x4) x2
Verse [Guitar] x2
} together
Verse [Bass] x2
Bridge [Guitar] x1
} together
Bass Part [Bass] x2
Chorus [both] x1
Intro to verse [Guitar] x1
} together
Verse [Bass] x1
Verse [Guitar] x2
} together
Verse [Bass] x2
Bridge [Guitar] x1
} together
Bass Part [Bass] x2
Chorus [both] x1
Little Solo [Guitar] x1
Intro to bridge [Guitar] x1
Bridge [Guitar] x1
} together
Bass Part [Bass] x2
Chorus 2 [both] x1
 
 

Видео