Muse - Muscle Museum, аккорды

Прокрутка
Тональность
Шрифт
100
E|-5-5-5-5-5-5-5-5--9--9--9-7-7-7-5-5-5/4-|
B|-7-7-7-7-7-7-7-7-10-10-10-9-9-9-7-7-7/6-|
G|------------------------------------------|
D|------------------------------------------|
A|------------------------------------------|
E|------------------------------------------|

E|-4-4-7-7-7-5-5-5-4-4-4/5-5-5--9--9--9-|
B|-6-6-9-9-9-7-7-7-6-6-6/7-7-7-10-10-10-|
G|----------------------------------------|
D|----------------------------------------|
A|----------------------------------------|
E|----------------------------------------|

E|--9--9--9-10-10-10-10-10-10-10-|
B|-11-11-11-12-12-12-12-12-12-12-|
G|-------------------------------|
D|-------------------------------|
A|-------------------------------|
E|-------------------------------|
do this twice except only play the last note once

Pre-chorus:
F#m C#
E|--------5-2-2-2-2---------4--------------------------------------------------|
B|-----------2-2-2-----------6-^6-6--------------------------------------------|
G|----------------------------6--6-6-------------------------------------------|
D|-------------------6-6-6-----------4-4-4-4-4-4-4-6-6-6-6-6-6-6-7-7-7-7-7-7-7-|
A|-4-4-4-------------4-4-4-----------5-5-5-5-5-5-5-5-5-5-5-5-5-5-5-5-5-5-5-5-5-|
E|-2-2-2-----------------------------------------------------------------------|

E|---------------|
B|---------------|
G|---------------|
D|-7-7-7-7-7-7-7-|
A|-5-5-5-5-5-5-5-|
E|---------------|

Chorus:
F#m C#m
E|-----------------------------------------------------------------------------|
B|-----------------------------------------------------------------------------|
G|-----------------------------------------------------------------------------|
D|-----------------------------------------------------------------------------|
A|-4-4-4-4-4-----4-4-4-4-4-----11-11-11-11-11-----11-11-11-11-11-----4-4-4-4-4-|
E|-2-2-2-2-2-----2-2-2-2-2------9--9--9--9--9------9--9--9--9--9-----2-2-2-2-2-|

Bm
E|-----------------------------------------------------|
B|-----------------------------------------------------|
G|-----------------------------------------------------|
D|-----------------------------------------------------|
A|-4-4-4-4-4-----9-9-9-9-9------9-9-9-9-9- play twice.-|
E|-2-2-2-2-2-----7-7-7-7-7------7-7-7-7-7--------------|

if u want to get it like the recording, a second guitarist
could play broken chords(use chords given)

then play this. (scream bit after chorus)
E|-------------------------------|
B|-------------------------------|
G|-------------------------------|
D|-6-6-6-6-6-6-6-6-6-6-6-6-6-6-7-|
A|-7-7-7-7-7-7-7-8-8-8-8-8-8-8-9-|
E|-------------------------------|

play the first guitar riff again (once)

verse guitar 1:

..played in every toilet... hammer-ons
E|----------------------------------------------------------------------|
B|-----^2---------------------------------------------------------------|
G|----2---------------------------------------------5-6-5-6-5-6-5-6-5-6-|
D|--4---4---------------------------------------------------------------|
A|-4--------------------------------------------------------------------|
E|----------------------------------------------------------------------|

verse guitar 2:
E|----------------------------------------------------------------------------|
B|----------------------------------------------------------------------------|
G|-----2-2-----2-2-----2-2------2-2-1-1------1-1------1-1-----1-1---------2-2-|
D|---------------------------------------3-3------3-3-----3-3-----3-0---------|
A|-4-4-----4-4-----4-4-----4-4----------------------------------------4-4-----|
E|----------------------------------------------------------------------------|

E|---------------------------------------------------------------|
B|-----------------------------3-3--------------3-3--------------|
G|------2-2------2-2------2-2------4-4-----4-4------4-4------4-4-|
D|-------------------------------------4-4---------------4-4-----|
A|-4-4------4-4------4-4-----------------------------------------|
E|---------------------------------------------------------------|

play pre chorus,
chorus

Outro: (sorry just chords I haven’t worked out the solo!)
E|-----------------------------------------------------------------|
B|-----------------------------------------------------------------|
G|-----------------------------------------------------------------|
D|-6-6-6-6-6-6-6-6-6-6-6-6-6-6-6-6-7-7-7-7-9-9-9-9-7-7-7-7-7-7-7-7-|
A|-7-7-7-7-7-7-7-7-8-8-8-8-8-8-8-8-9-9-9-9-7-7-7-7-5-5-5-5-5-5-5-5-|
E|-----------------------------------------------------------------|

E|----------------------------------------- -------------------------|
B|----------------------------------------- -------------------------|
G|----------------------------------------- -------------------------|
D|----------------------------------------- -------------------------|
A|-7-7-7-7-7-7-7-7-11-11-11-11-11-11-11-11- -4-4-4-4-9-9-7-6-4-4-4-4-|
E|-5-5-5-5-5-5-5-5--9--9--9--9--9--9--9--9- -2-2-2-2-7-7-5-4-2-2-2-2-| x4
 
 

Видео