Muse - In Your World, аккорды

Прокрутка
Тональность
Шрифт
100
| intro x2 / all hammered /
E|-------------------------------------------------------------|
B|-------------------------------------------------------------|
G|-------------------------------------------------------------|
D|------12--10--9--------------9------12--10--9--------------9-|
A|--12-------------12--11--12-----12-------------12--11--12----|
E|-------------------------------------------------------------|
 
E|--------------------------------------------------------------------------|
B|--------------------------------------------------------------------------|
G|--------------------------------------------------------------------------|
D|------12--10--9--------------9---------------9--10--12--10--9-------------|
A|--12-------------12--11--12-----12--11--12---------------------12--11--12-|
E|--------------------------------------------------------------------------|

| pre-chorus
E|---------------------|
B|---------------------|
G|---------------------|
D|--5---7---9---10---9-|
A|--3---5---7----8---7-|
E|---------------------|
d d d d d

| chorus x3 / the palm muted parts are fast /
E|------------------------- -------------------------------|
B|---------------6-6-6----- -------------------------------|
G|--5-5--x-x-x---5-5-5----- x2 ---------------9-9-9---- x2-|
D|--5-5--x-x-x---3-3-3----- --7-7--x-x-x---9-9-9-----------|
A|--3-3--x-x-x------------- --7-7--x-x-x---7-7-7-----------|
E|------------------------- --5-5--x-x-x-------------------|
d d u d u d d d d d u d u d d d

intro
pre-chorus
chorus
intro

| end / all hammered /
E|----------------------------------------------------------------|
B|----------------------------------------------------------------|
G|----------------------------------------------9----9--10--9--10-|
D|---------------9--10--9--10--12--10--12---12--------------------|
A|--12--11--12----------------------------------------------------|
E|----------------------------------------------------------------|

E|-----------------------------------------------------------------------------|
B|-----------------------------------------------------------------------------|
G|-12--10--9--10--9------9-----------------------------------------------------|
D|-----------------------12----12--10--12--10--9--10--12--10--9----------------|
A|--------------------------------------------------------------------12(hold)-|
E|-----------------------------------------------------------------------------|

i think this is the way he plays it in the video clip

| intro x2 / all hammered /
E|---------------------------------------------------------|
B|---------------------------------------------------------|
G|---------------------------------------------------------|
D|------5--3--2--------------2------5--3--2--------------2-|
A|--5-------------5--4--5----5-------------5--4--5---------|
E|---------------------------------------------------------|

E|------------------------------------------------------------------|
B|------------------------------------------------------------------|
G|------------------------------------------------------------------|
D|------5--3--2---------------2----------2--3--5--3--2--------------|
A|--5-------------5--4--5-----5--4--5-----------------------5--4--5-|
E|------------------------------------------------------------------|

| lyric

I'm hurting you again
To know you to pretend
Like everything is new
I promise you to
Blow..it..all away

In your world
No one is crying alone
In your world
No one is dying alone

To broken to be loved
To weak to save it all
I'll comfort you my friend
Helping you to
Blow..it..all away

In your world
No one is crying alone
In your world
No one is dying alone
 
 

Видео