Muse - Butterflies And Hurricanes (bass), аккорды

Прокрутка
Тональность
Шрифт
100
Intro:
G|----------------------------------|
D|----------------------------------|
A|----------------------------------|
D|-12121212121212121212121212121212-|

G|----------------------------------|----------------------------------|
D|----------------------------------|----------------------------------|
A|----------------------------------|----------------------------------|
D|-12121212121212121212121212121212-|-12121212121212121212121212121212-|

G|----------------------------------|--------------------------------|
D|----------------------------------|--------------------------------|
A|----------------------------------|--------------------------------|
D|-12121212121212121212121212121212-|-121212121212121212121212121212-|

G|--------------------------------------------------|
D|--------------------------------------------------|
A|--17-17-17-16-16-16-15-15-15-14-14-14-13-13-12-12-|
D|--------------------------------------------------|

G|----------------------------------|------------------|
D|----------------------------------|------------------|
A|-11111111111111111111111111111111-|-7777777777777777-|
D|----------------------------------|------------------|
G|----------------------------------|----------------------------------|
D|----------------------------------|----------------------------------|
A|----------------------------------|----------------------------------|
D|-12121212121212121212121212121212-|-12121212121212121212121212121212-|

Chorus:
G|------------------|------------------|------------------|------------------|
D|------------------|------------------|------------------|------------------|
A|------------------|-5555555555555555-|------------------|-5555555555555555-|
D|-8888888888888888-|------------------|-8888888888888888-|------------------|

G|------------------|------------------|------------------|
D|------------------|------------------|------------------|
A|------------------|-8888888888888888-|-9999999999999999-|
D|-8888888888888888-|------------------|------------------|

G|----------------------------------|
D|----------------------------------|
A|-10101010101010101010101010101010-|
D|----------------------------------|

G|------------------|------------------|------------------|-------------------|
D|------------------|------------------|------------------|-------------------|
A|------------------|-8888888888888888-|------------------|-8888888888888888--|
D|-8888888888888888-|------------------|-8888888888888888-|-----------------7r|

G|---------------|---------------|
D|---------------|---------------|
A|---7-4-------1-|---7-4-------1-|
D|-7-----8-5-8---|-7-----8-5-8---|

Verse:
G|----------------------------------|----------------------------------|
D|----------------------------------|----------------------------------|
A|----------------------------------|----------------------------------|
D|-12121212121212121212121212121212-|-12121212121212121212121212121212-|

G|----------------------------------|----------------------------------|
D|----------------------------------|----------------------------------|
A|----------------------------------|----------------------------------|
D|-12121212121212121212121212121212-|-12121212121212121212121212121212-|

G|----------------------------------|------------------------------------------|
D|----------------------------------|------------------------------------------|
A|----------------------------------|------------------------------------------|
D|-12121212121212121212121212121212-|-12-12-12-11-11-11-10-10-10-9-9-9-8-8-7-7-|

G|------------------|------------------|
D|------------------|------------------|
A|------------------|------------------|
D|-6666666666666666-|-2222222222222222-|

G|-----------------|------------------|
D|-----------------|------------------|
A|-----------------|------------------|
D|-777777777777777-|-7777777777777777-|

G|----------------------------------|----------------------------------|
D|----------------------------------|----------------------------------|
A|----------------------------------|----------------------------------|
D|-12121212121212121212121212121212-|-11111111111111111111111111111111-|
G|----------------------------------|------------------|
D|----------------------------------|------------------|
A|----------------------------------|------------------|
D|-10101010101010101010101010101010-|-9999999999999999-|

G|------------------|------------------|------------------|------------------|
D|------------------|------------------|------------------|------------------|
A|------------------|------------------|------------------|------------------|
D|-8888888888888888-|-7777777777777777-|-6666666666666666-|-2222222222222222-|

G|------------------|------------------|
D|------------------|------------------|
A|------------------|------------------|
D|-7777777777777777-|-7777777777777777-|

Chorus:
G|------------------|------------------|------------------|------------------|
D|------------------|------------------|------------------|------------------|
A|------------------|-5555555555555555-|------------------|-5555555555555555-|
D|-8888888888888888-|------------------|-8888888888888888-|------------------|

G|------------------|------------------|------------------|
D|------------------|------------------|------------------|
A|------------------|-8888888888888888-|-9999999999999999-|
D|-8888888888888888-|------------------|------------------|

G|----------------------------------|
D|----------------------------------|
A|-10101010101010101010101010101010-|
D|----------------------------------|

G|------------------|------------------|------------------|--------------------|
D|------------------|------------------|------------------|--------------------|
A|------------------|-8888888888888888-|------------------|-8888888888888888---|
D|-8888888888888888-|------------------|-8888888888888888-|-----------------7r-|

G|---------------|---------------|
D|---------------|---------------|
A|---7-4-------1-|---7-4-------1-|
D|-7-----8-5-8---|-7-----8-5-8---|

Interlude:
G|------------------|------------------|------------------|------------------|
D|------------------|------------------|------------------|------------------|
A|------------------|------------------|------------------|------------------|
D|-0000000000000000-|-0000000000000000-|-0000000000000000-|-0000000000000000-|

G|------------------|------------------|------------------|------------------|
D|------------------|------------------|------------------|------------------|
A|------------------|------------------|------------------|------------------|
D|-0000000000000000-|-0000000000000000-|-0000000000000000-|-0000000000000000-|

G|------------------|------------------|------------------|-------------------|
D|------------------|------------------|------------------|-------------------|
A|------------------|------------------|------------------|-------------------|
D|-0000000000000000-|-0000000000000000-|-0000000000000000-|-0000000000000000r-|

Pause

Chorus:
G|------------------|------------------|------------------|------------------|
D|------------------|------------------|------------------|------------------|
A|------------------|-5555555555555555-|------------------|-5555555555555555-|
D|-8888888888888888-|------------------|-8888888888888888-|------------------|

G|------------------|------------------|------------------|
D|------------------|------------------|------------------|
A|------------------|-8888888888888888-|-9999999999999999-|
D|-8888888888888888-|------------------|------------------|

G|----------------------------------|
D|----------------------------------|
A|-10101010101010101010101010101010-|
D|----------------------------------|

G|------------------|------------------|------------------|------------------|
D|------------------|------------------|------------------|------------------|
A|------------------|-8888888888888888-|------------------|-8888888888888888-|
D|-8888888888888888-|------------------|-8888888888888888-|------------------|

G|-----------------|------------------|
D|-----------------|------------------|
A|-----------------|------------------|
D|-777777777777777-|-7777777777777777-|

G|---------------|----------------|
D|---------------|----------------|
A|---7-4-------1-|---7-4-------1--|
D|-7-----8-5-8---|-7-----8-5-8---0|
 
 

Видео