Muse - Sunburn, аккорды

Прокрутка
Тональность
Шрифт
100
Chorus 1
|----------------------------------|
|----------------------------------|
|-2-2-2-2-2-2-2-2------------------|
|-2-2-2-2-2-2-2-2--2-2-2-2-2-2-2-2-|
|-0-0-0-0-0-0-0-0--2-2-2-2-2-2-2-2-|
|------------------0-0-0-0-0-0-0-0-|

|----------------------------------|
|----------------------------------|
|-2-2-2-2-2-2-2-2------------------|
|-2-2-2-2-2-2-2-2--2-2-2-2-2-2-2-2-|
|-0-0-0-0-0-0-0-0--2-2-2-2-2-2-2-2-|
|------------------0-0-0-0-0-0-0-0-|

|----------------------------------|
|----------------------------------|
|-2-2-2-2-2-2-2-2------------------|
|-2-2-2-2-2-2-2-2--2-2-2-2-2-2-2-2-|
|-0-0-0-0-0-0-0-0--2-2-2-2-2-2-2-2-|
|------------------0-0-0-0-0-0-0-0-|

|----------------------------------|
|----------------------------------|
|-2-2-2-2-2-2-2-2------------------|
|-2-2-2-2-2-2-2-2--2-2-2-2-2-2-2-2-|
|-0-0-0-0-0-0-0-0--2-2-2-2-2-2-2-2-|
|------------------0-0-0-0-0-0-0-0-|

Bridge Ater First Chorus
|-------------------10-11-12-11-10---------------------|
|-11-12-11-10-11-10----------------11-12-11-12---------|
|------------------------------------------------------|
|------------------------------------------------------|
|------------------------------------------------------|
|------------------------------------------------------|

|-------------------10-11-12-11-10---------------------|
|-11-12-11-10-11-10----------------11-12-11-12---------|
|------------------------------------------------------|
|------------------------------------------------------|
|------------------------------------------------------|
|------------------------------------------------------|

|-------------------10-11-12-11-10---------------------|
|-11-12-11-10-11-10----------------11-12-11-12---------|
|------------------------------------------------------|
|------------------------------------------------------|
|------------------------------------------------------|
|------------------------------------------------------|

|-10-11-12-11-10----------------------------10-11-12---|
|----------------12-11-12-11-12-11-10-11-10------------|
|------------------------------------------------------|
|------------------------------------------------------|
|------------------------------------------------------|
|------------------------------------------------------|

Solo
|---------------------------------------------|
|-/5-/5-/5-/5-/5-/5/6/7/8/9/10/11/12/13/14/15-|
|---------------------------------------------|
|---------------------------------------------|
|---------------------------------------------|
|---------------------------------------------|

|-/12-/15-/14-/12-/11-/8-/7----|
|------------------------------|
|------------------------------|
|------------------------------|
|------------------------------|
|------------------------------|

|------------------------------|
|------------------------------|
|-/9-/12-/11-/9-/8-/5-/4-------|
|------------------------------|
|------------------------------|
|------------------------------|

Chorus 2
|----------------------------------|
|----------------------------------|
|-2-2-2-2-2-2-2-2------------------|
|-2-2-2-2-2-2-2-2--2-2-2-2-2-2-2-2-|
|-0-0-0-0-0-0-0-0--2-2-2-2-2-2-2-2-|
|------------------0-0-0-0-0-0-0-0-|

|----------------------------------|
|----------------------------------|
|-2-2-2-2-2-2-2-2------------------|
|-2-2-2-2-2-2-2-2--2-2-2-2-2-2-2-2-|
|-0-0-0-0-0-0-0-0--2-2-2-2-2-2-2-2-|
|------------------0-0-0-0-0-0-0-0-|

|----------------------------------|
|----------------------------------|
|-2-2-2-2-2-2-2-2--9-9-9-9-9-9-9-9-|
|-2-2-2-2-2-2-2-2--x-x-x-x-x-x-x-x-|
|-0-0-0-0-0-0-0-0--7-7-7-7-7-7-7-7-|
|----------------------------------|

|--------------------------------------------------|
|--------------------------------------------------|
|-10-10-10-10-10-10-10-10--12-12-12-12-12-12-12-12-|
|-x--x--x--x--x--x--x--x---x--x--x--x--x--x--x--x--|
|-9--9--9--9--9--9--9--9---10-10-10-10-10-10-10-10-|
|--------------------------------------------------|

|--------------------------------------------------|
|--------------------------------------------------|
|-14-14-14-14-14-14-14-14--16-16-16-16-16-16-16-16-|
|-x--x--x--x--x--x--x--x---x--x--x--x--x--x--x--x--|
|-12-12-12-12-12-12-12-12--14-14-14-14-14-14-14-14-|
|--------------------------------------------------|

|--------------------------------------------------|
|--------------------------------------------------|
|-17-17-17-17-17-17-17-17--16-16-16-16-16-16-16-16-|
|-x--x--x--x--x--x--x--x---x--x--x--x--x--x--x--x--|
|-15-15-15-15-15-15-15-15--14-14-14-14-14-14-14-14-|
|--------------------------------------------------|

|--------------------------------------------------|
|--------------------------------------------------|
|-17-17-17-17-17-17-17-17--19-19-19-19-19-19-19-19-|
|-x--x--x--x--x--x--x--x---x--x--x--x--x--x--x--x--|
|-15-15-15-15-15-15-15-15--17-17-17-17-17-17-17-17-|
|--------------------------------------------------|

|--------------------------------------------------|
|--------------------------------------------------|
|-21-21-21-21-21-21-21-21--22-22-22-22-22-22-22-22-|
|-x--x--x--x--x--x--x--x---x--x--x--x--x--x--x--x--|
|-19-19-19-19-19-19-19-19--20-20-20-20-20-20-20-20-|
|--------------------------------------------------|
 
 

Видео