Muse - Hyper Music, аккорды

Прокрутка
Тональность
Шрифт
100
------------------------------------------------------------------------------
----6----6--------------------------------------------------------------------
----5----5--5-4-3-------------------------------------------------------------
----4----4--------------------------------------------------------------------
-5--5--5-5--------------------------------------------------------------------
-0-----0----------------------------------------------------------------------


------------------------------------------------------------------------------
----6----6------------6----6--------------------------------------------------
----5----5------------5----5--------------------------------------------------
----4----4------------4----4--------------------------------------------------
-5--5--5-5----3-5--5--5--5-5--3-2-1-------------------------------------------
-0-----0----5------0-----0----------------------------------------------------


-10-10-10-10-10-10-10-10-10-10-10-10-10-10-10-10------------------------------
-10-10-10-10-10-10-10-10-10-10-10-10-10-10-10-10------------------------------
-10-10-10-10-10-10-10-10-10-10-10-10-10-10-10-10------------------------------
-12-12-12-12-12-12-12-12-12-12-12-12-12-12-12-12------------------------------
------------------------------------------------------------------------------
------------------------------------------------------------------------------


-12-12-12-12-12-12-12-12-12-12-12-12-12-12-12-12------------------------------
-13-13-13-13-13-13-13-13-13-13-13-13-13-13-13-13------------------------------
-14-14-14-14-14-14-14-14-14-14-14-14-14-14-14-14------------------------------
------------------------------------------------------------------------------
------------------------------------------------------------------------------
------------------------------------------------------------------------------


-10-10-10-10-10-10-10-10-10-10-10-10-10-10-10-10------------------------------
-12-12-12-12-12-12-12-12-12-12-12-12-12-12-12-12------------------------------
-12-12-12-12-12-12-12-12-12-12-12-12-12-12-12-12------------------------------
------------------------------------------------------------------------------
------------------------------------------------------------------------------
------------------------------------------------------------------------------


-10-10-10-10-10-10-10-10-10-10-10-10-10-10-10-10------------------------------
-11-11-11-11-11-11-11-11-11-11-11-11-11-11-11-11------------------------------
-12-12-12-12-12-12-12-12-12-12-12-12-12-12-12-12------------------------------
------------------------------------------------------------------------------
------------------------------------------------------------------------------
------------------------------------------------------------------------------ 
 
 

Видео