Muse - Space Dementia (bass), аккорды

Прокрутка
Тональность
Шрифт
100
Intro (rest)

Verse (0:48)
----------------------------------------------------------------|
----------------------------------------------------------------|
----------------------------------------------------------------|
2222222222222222222222222222222244444444444444444444444444444444|
----------------------------------------------------------------|

----------------------------------------------------------------|
----------------------------------------------------------------|
----------------------------------------------------------------|
5555555555555555555555555555555577777777777777777777777777777777|
----------------------------------------------------------------|

----------------------------------------------------------------|
----------------------------------------------------------------|
2222222222222222444444444444444455555555555555556666666666666666|
----------------------------------------------------------------|
----------------------------------------------------------------|

Rest

Verse again

Prechorus (2:01)
----9-------9-------8-------8-------7-------7-------6-------6---|
----------------------------------------------------------------|
7-------7-------6-------6-------5-------5-------4-------4-------|
----------------------------------------------------------------|
----------------------------------------------------------------|

----5-------5-------4-------4---|
--------------------------------|
3-------3-------2-------2-------|
--------------------------------|
--------------------------------|

Chorus 1 (2:18)
----------------------------------------------------------------|
--2---4---5---6---7---9---10--11--0---2---3---4---5---7---8---9-|
----------------------------------------------------------------|
2---4---5---6---7---9---10--11--0---2---3---4---5---7---8---9---|
----------------------------------------------------------------|

----------------------------------------------------------------|
----------------------------------------------------------------|
--3---5---6---7---9---7---5---4---2---4---5---6---7---7---7---7-|
----------------------------------------------------------------|
3---5---6---7---9---7---5---4---2---4---5---6---7---7---7---7---|

----------------------------------4---4---4---4-----------------|
--3---3---3---3---4---4---4---4---------------------------------|
----3-------3-------4-------4---2---2---2---2---2---------------|
3-------3-------4-------4---------------------------------------|
----------------------------------------------------------------|

rest

Verse once

Prechorus once

Chorus 2
----------------------------------------------------------------|
--2---4---5---6---7---9---10--11--0---2---3---4---5---7---8---9-|
----------------------------------------------------------------|
2---4---5---6---7---9---10--11--0---2---3---4---5---7---8---9---|
----------------------------------------------------------------|

----------------------------------------------------------------|
----------------------------------------------------------------|
--3---5---6---7---9---7---5---4---2---4---5---6---7---7---7---7-|
----------------------------------------------------------------|
3---5---6---7---9---7---5---4---2---4---5---6---7---7---7---7---|

----------------------------------4---4---4---4---4---4---4---4-|
--3---3---3---3---4---4---4---4---------------------------------|
----3-------3-------4-------4---2---2---2---2---2---2---2---2---|
3-------3-------4-------4---------------------------------------|
----------------------------------------------------------------|

After the 2nd chorus, play this
----------------------------------------------------------------|
----------------------------------------------------------------|
--2---22--2---2---1---11--1---1---2---22--2---2---1---11--1---1-|
----------------------------------------------------------------|
2---2---2---2---1---1---1---1---2---2---2---2---1---1---1---1---|

----------------------------------------------------------------|
----------------------------------------------------------------|
--2---22--2---2---1---11--1---1---3---33--3---3---2---22--2---2-|
----------------------------------------------------------------|
2---2---2---2---1---1---1---1---3---3---3---3---2---2---2---2---|

----------------------------------------------------------------|
----------------------------------------------------------------|
--1---11--1---1---0---00--0---0---0---00--0---0-----------------|
----------------------------------------------------------------|
1---1---1---1---0---0---0---0---0---0---0---0-------------------|
^slow down here^

Big finish
(hit a 3 on the middle string (the higher a string) at about 4:56
and let it ring for a while, until around 5:11) then...
----------------------------------------------------------------|
----------------------------------------------------------------|
----------------3~--------------1~--------------2~--------------|
2~--------------------------------------------------------------|
----------------------------------------------------------------|
play this twice, then...

The last note (let this one ring for as long as your bass will
allow.)
--|
--|
--|
2~|
--|
 
 

Видео