Muse - Citizen Erased, аккорды

Прокрутка
Тональность
Шрифт
100
Intro:
E|-----------------------------------------------------------------------------|
B|-----------------------------------------------------------------------------|
G|x----------------------------------------------------------------------------|
D|----7----7-7----7----7------7----7-7-----7---7-----2---2-2----2---2-----2----|
A|x----------------------------------------------------------------------------|
E|5-5----5----5-5---5-----5-5---5----5-5---5----5-5---5-----5-5---5---5-5----5-|

E|------------|
B|------------|
G|x-----------|
D|2-2-----2---|
A|x-----------|
E|----5-5---5-|

E|----------------------------------------------------------------------------|
B|----------------------------------------------------------------------------|
G|x---------------------------------------------------------------------------|
D|-----7---7-7----7----7------7---7-7----7-----7------2-----2-2-----2----2----|
A|x---------------------------------------------------------------------------|
E|5-5----5----5-5---5-----5-5---5----5-5---5-----5-5----5------5-5--5-----5-5-|

E|-----------|
B|-----------|
G|-----------|
D|2---2-hold-|
A|-----------|
E|--5--------|

2nd part of intro and verse1:

as with this part the “dampen and scrape” is kept going.

E|----------------------------------------------------------------------------|
B|----------------------------------------------------------------------------|
G|x---------------------------------------------------------------------------|
D|----7---7-7-----7----7------5---5-5------5--------3----3-3-----3---3-----2--|
A|x---------------------------------------------------------------------------|
E|5-5 ---5----5-5----5----5-5---3------3-3---3--1-1---1-----1-1---1---0-0---0-|

E|------------|
B|------------|
G|------------|
D|2-2-----2---|
A|------------|
E|----0-0---0-|

Bridge and Chorus:

I'm writing out the whole chords but they can be played as power chords.
I play the top 2-3 strings of every chord.

F C E Am G F
E|1-1-1-1-1-1-1-1--0-0-0-0-0-0-0-0-------------------5-5-5-5--3-3-3-3--1-1-1-1-|
B|1-1-1-1-1-1-1-1--1-1-1-1-1-1-1-1--0-0-0-0-0-0-0-0--5-5-5-5--3-3-3-3--1-1-1-1-|
G|2-2-2-2-2-2-2-2--0-0-0-0-0-0-0-0--1-1-1-1-1-1-1-1--5-5-5-5--4-4-4-4--2-2-2-2-|
D|3-3-3-3-3-3-3-3--2-2-2-2-2-2-2-2--2-2-2-2-2-2-2-2--7-7-7-7--5-5-5-5--3-3-3-3-|
A|-----------------3-3-3-3-3-3-3-3---------------------------------------------|
E|-----------------------------------------------------------------------------|
C E

E|1-1-1-1--0-0-0-0-0-0-0-0----------------------------------|
B|1-1-1-1--1-1-1-1-1-1-1-1--0-0-0-0-0-0-0-0-0-0-0-0-0-0-0-0-|
G|2-2-2-2--0-0-0-0-0-0-0-0--1-1-1-1-1-1-1-1-1-1-1-1-1-1-1-1-|
D|3-3-3-3--2-2-2-2-2-2-2-2--2-2-2-2-2-2-2-2-2-2-2-2-2-2-2-2-|
A|---------3-3-3-3-3-3-3-3----------------------------------|
E|----------------------------------------------------------|

Verse2:
Am G F E
E|0---0---0---0---3---3---3---3---1---1---1---1---0---0---0---0-------|
B|1---1---1---1---3---3---3---3---1---1---1---1---0---0---0---0-------|
G|2---2---2---2---0---0---0---0---2---2---2---2---1---1---1---1-------|
D|2---2---2---2---0---0---0---0---3---3---3---3---2---2---2---2-------|
A|0---0---0---0---2---2---2---2---------------------------------------|
E|----------------3---3---3---3----------------------------------- x7-|

Chorus 2:
this is the same chords as the first except it is plucked on the guitar.

E|-1--1---1------------0--0--0---5----3-----1--1---1-|
B|--1--1-----1--1--1----0--0------5----3-----1--1----|
G|---2--2-----0--0-------1--1------5----4-----2--2---|
D|3------------2--2---2---------7----5-----3---------|
A|----------3----------------------------------------|
E|---------------------------------------------------|

E|------------0--0--0---0--0--0-------|
B|-1--1--1-----0--0------0--0---------|
G|--0--0--------1--1------1--1--------|
D|---2--2----2---------2--------------|
A|3-----------------------------------|
E|-------------------------------- x2-|

Goes back to play the intro again except don't hold the last note slide up and
down the E string! Then it plays the intro twice and the chorus section 4 times.

Bridge 2:

After the guitar solo there’s the bass line which I wrote down.

E|-----------------------------------------------------------------------------|
B|-----------------------------------------------------------------------------|
G|-----------------------------------------------------------------------------|
D|7---7/9----9-10---10-9-7-6---6/7---7/9-----9-10---10-9-7-6---6/7---5---7-----|
A|---------------------------------------------------------------------------7-|
E|-----------------------------------------------------------------------------|

E|-----------------------------------------------------------------------------|
B|-----------------------------------------------------------------------------|
G|------------------/5---5-----------------------------------------------------|
D|7--5--------------------7---7-5---5------------------------------------------|
A|------3--3--3--3---------------------8---8-7---7-5--5------------------------|
E|--------------------------------------------------------8---8-3---3-8---8-10-|

E|---------------|
B|---------------|
G|---------------|
D|---------------|
A|-------------3-|
E|3--3-3-5-3-5---|
 
 

Видео