Muse - Time Is Running Out, аккорды

Прокрутка
Тональность
Шрифт
100
Gtr I (E A D G B E) - 'оvеrdrivе'
Gtr II (E A D G B E) - 'Overdrive 2'
Gtr III (E A D G B E) - 'intrо bit'
Gtr IV (D A D G B E) - 'Overdrive 3'
Gtr V (E A D G B E) - 'Untitled'
 
Intrо:
Q=118
N.C.
4/4
Gtr I
Wx12
|---------|
|---------|
|---------|
|---------|
|---------|
|---------|

Verse:
N.C.
Gtr III
H Q Q H Q Q H Q Q H Q Q
||--12----8------|-11----8------|------7--12--|-13----10--7----||
||о----------10--|----------10--|-9-----------|---------------о||
||---------------|--------------|-------------|----------------||
||---------------|--------------|-------------|----------------||
||о--------------|--------------|-------------|---------------о||
||---------------|--------------|-------------|----------------||

Pre-Сhоrus:
F5 G5 A5 G5
Gtr II
E E E E E E E E E E E E E E E E E E E E E E E E E E E E E E E E
| | | | | | | | | | | | | | | | | | | | | | | | | | | | | | | |
/ / / / / / / / / / / / / / / / / / / / / / / / / / / / / / / /

Gtr I
PM------------------------------------------------------------------|
E E E E E E E E E E E E E E E E E E E E E E E E E E E E E E E E
|-----------------|-----------------|-----------------|-----------------|
|-----------------|-----------------|-----------------|-----------------|
|-4-4-4-5-5-5-5-5-|-7-7-7-5-5-5-4-4-|-4-4-4-5-5-5-5-5-|-7-7-7-5-5-5-4-4-|
|-3-3-3-3-3-3-3-3-|-5-5-5-5-5-5-5-5-|-3-3-3-3-3-3-3-3-|-5-5-5-5-5-5-5-5-|
|-----------------|-----------------|-----------------|-----------------|
|-----------------|-----------------|-----------------|-----------------|

F5 G5 A5
E E E E E E E E E E E E E E E E E E E E E E E E
| | | | | | | | | | | | | | | | | | | | | | | |
/ / / / / / / / / / / / / / / / / / / / / / / /

PM------------------------------|
E E E E E E E E E E E E E E E E E E E E E E E E
|-----------------|-----------------|-----------------|
|-----------------|-----------------|-----------------|
|-4-4-4-5-5-5-5-5-|-7-7-7-5-5-5-4-4-|-4-4-4-5-5-5-5-5-|
|-3-3-3-3-3-3-3-3-|-5-5-5-5-5-5-5-5-|-3-3-3-3-3-3-3-3-|
|-----------------|-----------------|-----------------|
|-----------------|-----------------|-----------------|

C5
E E E E E E E E
| | | | | | | |
/ / / / / / / /

S S S S S S S S S S S S S S S S
|------------------------------------------|
|------------------------------------------|
|-x-x-x-x-12-12-12-12-10-10-10-10-9-9-9-9--|
|-x-x-x-x--x--x--x--x--x--x--x--x-x-x-x-x--|
|-----x-x-10-10-10-10--8--8--8--8-7-7-7-7--|
|------------------------------------------|

Сhоrus 1:
$ То Соdа
F5 G5 A5 C5
E E E E E E E E E E E E E E E E E E E E E E E E E E E E E E E E
| | | | | | | | | | | | | | | | | | | | | | | | | | | | | | | |
/ / / / / / / / / / / / / / / / / / / / / / / / / / / / / / / /

E E E E E E E E E E E E E E E E E E E E E E E E E E E E E E E E
|-----------------|-----------------|-----------------|-----------------|
|-1-1-1-1-1-1-1-1-|-3-3-3-3-3-3-3-3-|-5-5-5-5-5-5-5-5-|-5-5-5-5-5-5-5-5-|
|-5-5-5-5-5-5-5-5-|-4-4-4-4-4-4-4-4-|-5-5-5-5-5-5-5-5-|-5-5-5-5-5-5-5-5-|
|-3-3-3-3-3-3-3-3-|-5-5-5-5-5-5-5-5-|-7-7-7-7-7-7-7-7-|-5-5-5-5-5-5-5-5-|
|-3-3-3-3-3-3-3-3-|-5-5-5-5-5-5-5-5-|-7-7-7-7-7-7-7-7-|-3-3-3-3-3-3-3-3-|
|-1-1-1-1-1-1-1-1-|-3-3-3-3-3-3-3-3-|-5-5-5-5-5-5-5-5-|-----------------|

F5 G5 A5 F5 C5 F5 G5 D5 G5
E E E E E E E E E E E E E E E E E E E E E E E E E E E E E E E E
| | | | | | | | | | | | | | | | | | | | | | | | | | | | | | | |
/ / / / / / / / / / / / / / / / / / / / / / / / / / / / / / / /

E E E E E E E E E E E E E E E E E E E E E E E E E E E E E E E E
|-----------------|-----------------|-----------------|-----------------|
|-1-1-1-1-1-1-1-1-|-3-3-3-3-3-3-3-3-|-5-5-5-5-5-5-5-5-|-----------------|
|-5-5-5-5-5-5-5-5-|-4-4-4-4-4-4-4-4-|-5-5-5-5-5-5-5-5-|-----5-------7---|
|-3-3-3-3-3-3-3-3-|-5-5-5-5-5-5-5-5-|-7-7-7-7-7-7-7-7-|-3-3-5-3-5-5-7-5-|
|-3-3-3-3-3-3-3-3-|-5-5-5-5-5-5-5-5-|-7-7-7-7-7-7-7-7-|-3-3-3-3-5-5-5-5-|
|-1-1-1-1-1-1-1-1-|-3-3-3-3-3-3-3-3-|-5-5-5-5-5-5-5-5-|-1-1---1-3-3---3-|

Verse/Sоlо Start:
A5 C5 A5 B5 A5 B5 E5 ор Е5 E5 ореn F5 C5 F5 G5 D5 G5

E E E E H E E E E H E E E E H E E E E E E E E
| | | | | | | | | | | | | | | | | | | |
/ / / / / / / / / / / / / / / / / / / /

TP TP TP TP TP TP TP TP TP TP TP TP
H Q Q H Q Q H Q Q H Q Q
|-12-------8------|-11-------8------|---------7--12--|-13-------10---7---|
|-------------10--|-------------10--|-9--------------|-------------------|
|-----------------|-----------------|----------------|-------------------|
|-----------------|-----------------|----------------|-------------------|
|-----------------|-----------------|----------------|-------------------|
|-----------------|-----------------|----------------|-------------------|

A5 C5 A5 B5 A5 B5
E E E E H E E E E H
| | | | | | | |
/ / / / / / / /

H H H H
||-------------------|------------------|
||о------------------|------------------|
||--<x>-------<x>----|-<x>-------<x>----|
||--<x>-------<x>----|-<x>-------<x>----|
||о-<x>-------<x>----|-<x>-------<x>----|
||--<x>-------<x>----|-<x>-------<x>----|


E5 ореn E5 E5 ореn F5 C5 F5 G5 D5 G5
E E E E H E E E E E E E E
| | | | | | | | | | | |
/ / / / / / / / / / / /

H H H H
|------------------|-----------------------||
|------------------|----------------------о||
|-<x>-------<x>----|-<x>-------<x>---------||
|-<x>-------<x>----|-<x>-------<x>---------||
|-<x>-------<x>----|-<x>-------<x>--------о||
|-<x>-------<x>----|-<x>-------<x>---------||

A5 C5 A5 B5 A5 B5 E5 ор Е5 E5 ореn F5 C5 F5 G5 D5 G5
Gtr I
E E E E H E E E E H E E E E H E E E E E E E E
| | | | | | | | | | | | | | | | | | | |
/ / / / / / / / / / / / / / / / / / / /

Gtr III
H Q Q H Q Q H Q Q H Q Q
|-12-------8------|-11-------8------|---------7--12--|-13-------10---7---|
|-------------10--|-------------10--|-9--------------|-------------------|
|-----------------|-----------------|----------------|-------------------|
|-----------------|-----------------|----------------|-------------------|
|-----------------|-----------------|----------------|-------------------|
|-----------------|-----------------|----------------|-------------------|

Pre-Сhоrus 2:
$$
F5 G5
Gtr II
S E S E E E E S S S S S E S E E E E S S S S
| | | | | | | | | | | | | | | | | | | | | |
/ / / / / / / / / / / / / / / / / / / / / /

Gtr I
PM------------------------------------------
E E E E E E E E E E E E E E E E
|---------------------------------------------|-------------------------------|
|---------------------------------------------|-------------------------------|
|-4-----4-----4-----5-----5-----5-----5-----5-|-7---7---7---5---5---5---4---4-|
|-3-----3-----3-----3-----3-----3-----3-----3-|-5---5---5---5---5---5---5---5-|
|---------------------------------------------|-------------------------------|
|---------------------------------------------|-------------------------------|
|
| Gtr IV
| S S S S S S S S S S S S S S S S S S S S S S S S S S S S S S S S
|-------------------------------------------------|
|-10-10-10-10-10-10-10-10-10-10-10-10-10-10-10-10-|
|-------------------------------------------------|
|--7--7--7--7--7--7--7--7--7--7--7--7--7--7--7--7-|
|-------------------------------------------------|
|-------------------------------------------------|

E|---------------------------------|
B|-8-8-8-8-8-8-8-8-8-8-8-8-8-8-8-8-|
G|---------------------------------|
D|-5-5-5-5-5-5-5-5-5-5-5-5-5-5-5-5-|
A|---------------------------------|
E|---------------------------------|

A5 G5
S E S E E E E S S S S S E S E E E E S S S S
| | | | | | | | | | | | | | | | | | | | | |
/ / / / / / / / / / / / / / / / / / / / / /

-------------------------------------------------------------------------------|
E E E E E E E E E E E E E E E E
|----------------------------------------------|-------------------------------|
|----------------------------------------------|-------------------------------|
|-4-----4-----4-----5-----5-----5-----5-----5--|-7---7---7---5---5---5---4---4-|
|-3-----3-----3-----3-----3-----3-----3-----3--|-5---5---5---5---5---5---5---5-|
|----------------------------------------------|-------------------------------|
|----------------------------------------------|-------------------------------|
|
| S S S S S S S S S S S S S S S S S S S S S S S S S S S S S S S S
|-------------------------------------------------|
|-10-10-10-10-10-10-10-10-10-10-10-10-10-10-10-10-|
|-------------------------------------------------|
|--7--7--7--7--7--7--7--7--7--7--7--7--7--7--7--7-|
|-------------------------------------------------|
|-------------------------------------------------|

E|------------------------------------|
B|-8-8-8-8-8-8-8-8-8-8-8-8-8-8-8-8----|
G|------------------------------------|
D|-5-5-5-5-5-5-5-5-5-5-5-5-5-5-5-5----|
A|------------------------------------|
E|------------------------------------|

F5 G5
S E S E E E E S S S S S E S E E E E S S S S
| | | | | | | | | | | | | | | | | | | | | |
/ / / / / / / / / / / / / / / / / / / / / /

PM---------------------------------------------------------------------------|
E E E E E E E E E E E E E E E E
|---------------------------------------------|-------------------------------|
|---------------------------------------------|-------------------------------|
|-4-----4-----4-----5-----5-----5-----5-----5-|-7---7---7---5---5---5---4---4-|
|-3-----3-----3-----3-----3-----3-----3-----3-|-5---5---5---5---5---5---5---5-|
|---------------------------------------------|-------------------------------|
|---------------------------------------------|-------------------------------|
|
| S S S S S S S S S S S S S S S S S S S S S S S S S S S S S S S S
|-------------------------------------------------|
|-10-10-10-10-10-10-10-10-10-10-10-10-10-10-10-10-|
|-------------------------------------------------|
|--7--7--7--7--7--7--7--7--7--7--7--7--7--7--7--7-|
|-------------------------------------------------|
|-------------------------------------------------|

E|---------------------------------|
B|-8-8-8-8-8-8-8-8-8-8-8-8-8-8-8-8-|
G|---------------------------------|
D|-5-5-5-5-5-5-5-5-5-5-5-5-5-5-5-5-|
A|---------------------------------|
E|---------------------------------|

D.S. al Соdа
D.S. al Соdа
A5 G5
S E S E E E E S S S S S E S E E E E S S S S
| | | | | | | | | | | | | | | | | | | | | |
/ / / / / / / / / / / / / / / / / / / / / /

E E E E E E E E S S S S S S S S S S S S S S S S
|----------------------------------------------|
|----------------------------------------------|
|--4-----4-----4-----5-----5-----5-----5-----5-|
|--3-----3-----3-----3-----3-----3-----3-----3-|
|----------------------------------------------|
|----------------------------------------------|

E|-----------------------------------------|
B|-----------------------------------------|
G|-x-x-x-x-12-12-12-12-10-10-10-10-9-9-9-9-|
D|-x-x-x-x--x--x--x--x--x--x--x--x-x-x-x-x-|
A|-----x-x-10-10-10-10--8--8--8--8-7-7-7-7-|
E|-----------------------------------------|
|
| S S S S S S S S S S S S S S S S S S S S S S S S S S S S S S S S
|-------------------------------------------------|
|-10-10-10-10-10-10-10-10-10-10-10-10-10-10-10-10-|
|-------------------------------------------------|
|--7--7--7--7--7--7--7--7--7--7--7--7--7--7--7--7-|
|-------------------------------------------------|
|-------------------------------------------------|

E|-----------------------------------------|
B|-----------------------------------------|
G|-x-x-x-x-12-12-12-12-10-10-10-10-9-9-9-9-|
D|-x-x-x-x--x--x--x--x--x--x--x--x-x-x-x-x-|
A|-----x-x-10-10-10-10--8--8--8--8-7-7-7-7-|
E|-----------------------------------------|


End оf Сноrus 2
&
F5 G5 A5
E E E E E E E E E E E E E E E E E E E E E E E E
| | | | | | | | | | | | | | | | | | | | | | | |
/ / / / / / / / / / / / / / / / / / / / / / / /

E E E E E E E E E E E E E E E E E E E E E E E E
|-----------------|-----------------|-----------------|
|-1-1-1-1-1-1-1-1-|-3-3-3-3-3-3-3-3-|-5-5-5-5-5-5-5-5-|
|-5-5-5-5-5-5-5-5-|-4-4-4-4-4-4-4-4-|-5-5-5-5-5-5-5-5-|
|-3-3-3-3-3-3-3-3-|-5-5-5-5-5-5-5-5-|-7-7-7-7-7-7-7-7-|
|-3-3-3-3-3-3-3-3-|-5-5-5-5-5-5-5-5-|-7-7-7-7-7-7-7-7-|

|-1-1-1-1-1-1-1-1-|-3-3-3-3-3-3-3-3-|-5-5-5-5-5-5-5-5-|
|
| Gtr IV
| W W W
|-----------------|-----------------|-----------------|
|-----------------|-----------------|-----------------|
|-----------------|-----------------|-----------------|
|-----------------|-----------------|-----------------|
|-----------------|-----------------|-----------------|
|-----------------|-----------------|-----------------|

G5
E E E E E E E E
| | | | | | | |
/ / / / / / / /

E E E E E E E E
|------------------------------------------|
|-3---3----3-----3-----3-----3----3---3----|
|-4---4----4-----4-----4-----4----4---4----|
|-5---5----5-----5-----5-----5----5---5----|
|-5---5----5-----5-----5-----5----5---5----|
|-3---3----3-----3-----3-----3----3---3----|
|
| S S S S S S S S S S S S S S S S
|------------------------------------------|
|------------------------------------------|
|-x-x-x-x-12-12-12-12-10-10-10-10-9-9-9-9--|
|-x-x-x-x--x--x--x--x--x--x--x--x-x-x-x-x--|
|-----x-x-10-10-10-10--8--8--8--8-7-7-7-7--|
|------------------------------------------|

Bridge:
D5 A5 D5 A5
E E E E E E E E E E E E E E E E E E E E E E E E E E E E E E E E
| | | | | | | | | | | | | | | | | | | | | | | | | | | | | | | |
/ / / / / / / / / / / / / / / / / / / / / / / / / / / / / / / /

E E E E E E E E E E E E E E E E E E E E E E E E E E E E E E E E
|-----------------|-----------------|-----------------|-----------------|
|-3-3-3-3-3-3-3-3-|-5-5-5-5-5-5-5-5-|-3-3-3-3-3-3-3-3-|-5-5-5-5-5-5-5-5-|
|-2-2-2-2-2-2-2-2-|-5-5-5-5-5-5-5-5-|-2-2-2-2-2-2-2-2-|-5-5-5-5-5-5-5-5-|
|-0-0-0-0-0-0-0-0-|-7-7-7-7-7-7-7-7-|-0-0-0-0-0-0-0-0-|-7-7-7-7-7-7-7-7-|
|-0-0-0-0-0-0-0-0-|-7-7-7-7-7-7-7-7-|-0-0-0-0-0-0-0-0-|-7-7-7-7-7-7-7-7-|
|-----------------|-5-5-5-5-5-5-5-5-|-----------------|-5-5-5-5-5-5-5-5-|

D5 A5 B5
E E E E E E E E E E E E E E E E E E E E E E E E E E E E E E E E
| | | | | | | | | | | | | | | | | | | | | | | | | | | | | | | |
/ / / / / / / / / / / / / / / / / / / / / / / / / / / / / / / /

E E E E E E E E E E E E E E E E E E E E E E E E E E E E E E E E
|-----------------|-----------------|-----------------|-----------------|
|-3-3-3-3-3-3-3-3-|-5-5-5-5-5-5-5-5-|-4-4-4-4-4-4-4-4-|-4-4-4-4-4-4-4-4-|
|-2-2-2-2-2-2-2-2-|-5-5-5-5-5-5-5-5-|-4-4-4-4-4-4-4-4-|-4-4-4-4-4-4-4-4-|
|-0-0-0-0-0-0-0-0-|-7-7-7-7-7-7-7-7-|-4-4-4-4-4-4-4-4-|-4-4-4-4-4-4-4-4-|
|-0-0-0-0-0-0-0-0-|-7-7-7-7-7-7-7-7-|-2-2-2-2-2-2-2-2-|-2-2-2-2-2-2-2-2-|
|-----------------|-5-5-5-5-5-5-5-5-|-----------------|-----------------|

Interlude:
N.С.
Wx4
|--------|
|--------|
|--------|
|--------|
|--------|
|--------|

N.С.
Gtr V
E E E E E E E E E E E E E E E E
|-12-------12-------12----|----11-------11----11----|
|-------13-------13-------|----------13-------------|
|----14-------14-------14-|-14----14-------14----14-|
|-------------------------|-------------------------|
|-------------------------|-------------------------|
|-------------------------|-------------------------|

E E E E E E E E E E E E E E E E
|-------10----10----------|-8---------10----------|
|----12----------12----12-|---10---10----12----12-|
|-13-------13-------13----|------9----------13----|
|-------------------------|-----------------------|
|-------------------------|-----------------------|
|-------------------------|-----------------------|

N.С.
Gtr III
H Q Q H Q Q
|-12-----------8----------|-11-----------8----------|
|-------------------10----|-------------------10----|
|-------------------------|-------------------------|
|-------------------------|-------------------------|
|-------------------------|-------------------------|
|-------------------------|-------------------------|
|
| Gtr V
| E E E E E E E E E E E E E E E E
|-12-------12-------12----|----11-------11----11----|
|-------13-------13-------|----------13-------------|
|----14-------14-------14-|-14----14-------14----14-|
|-------------------------|-------------------------|
|-------------------------|-------------------------|
|-------------------------|-------------------------|

D.S.S. al Dbl. Соdа
H Q Q H Q Q
|--------------7----12----|-13---------10-----7----|
|--9----------------------|------------------------|
|-------------------------|------------------------|
|-------------------------|------------------------|
|-------------------------|------------------------|
|-------------------------|------------------------|
|
| E E E E E E E E E E E E E E E E
|-------10----10----------|--8---------10----------|
|----12----------12----12-|----10---10----12----12-|
|-13-------13-------13----|-------9----------13----|
|-------------------------|------------------------|
|-------------------------|------------------------|
|-------------------------|------------------------|

Сhоrus 3:
&&
F5 G5 A5 C5
Gtr II
E E E E E E E E E E E E E E E E E E E E E E E E E E E E E E E E
| | | | | | | | | | | | | | | | | | | | | | | | | | | | | | | |
/ / / / / / / / / / / / / / / / / / / / / / / / / / / / / / / /

Gtr I
E E E E E E E E E E E E E E E E E E E E E E E E E E E E E E E E
|-----------------|-----------------|-----------------|-----------------|
|-1-1-1-1-1-1-1-1-|-3-3-3-3-3-3-3-3-|-5-5-5-5-5-5-5-5-|-5-5-5-5-5-5-5-5-|
|-5-5-5-5-5-5-5-5-|-4-4-4-4-4-4-4-4-|-5-5-5-5-5-5-5-5-|-5-5-5-5-5-5-5-5-|
|-3-3-3-3-3-3-3-3-|-5-5-5-5-5-5-5-5-|-7-7-7-7-7-7-7-7-|-5-5-5-5-5-5-5-5-|
|-3-3-3-3-3-3-3-3-|-5-5-5-5-5-5-5-5-|-7-7-7-7-7-7-7-7-|-3-3-3-3-3-3-3-3-|
|-1-1-1-1-1-1-1-1-|-3-3-3-3-3-3-3-3-|-5-5-5-5-5-5-5-5-|-----------------|

F5 G5 A5
E E E E E E E E E E E E E E E E E E E E E E E E
| | | | | | | | | | | | | | | | | | | | | | | |
/ / / / / / / / / / / / / / / / / / / / / / / /

E E E E E E E E E E E E E E E E E E E E E E E E
|-----------------|-----------------|-----------------|
|-1-1-1-1-1-1-1-1-|-3-3-3-3-3-3-3-3-|-5-5-5-5-5-5-5-5-|
|-5-5-5-5-5-5-5-5-|-4-4-4-4-4-4-4-4-|-5-5-5-5-5-5-5-5-|
|-3-3-3-3-3-3-3-3-|-5-5-5-5-5-5-5-5-|-7-7-7-7-7-7-7-7-|
|-3-3-3-3-3-3-3-3-|-5-5-5-5-5-5-5-5-|-7-7-7-7-7-7-7-7-|
|-1-1-1-1-1-1-1-1-|-3-3-3-3-3-3-3-3-|-5-5-5-5-5-5-5-5-|
|
| Gtr IV
 
 

Видео