Muse - Ashamed (bass), аккорды

Прокрутка
Тональность
Шрифт
100
Intro:
G---||------------------------------------------------------------------
D---||------------------------------------------------------------------
A---||-----2--2--3-----2--2--3-----2--2--3-----2--2--3------------------
E---||--2-----------2-----------2-----------2---------------------------

Chorus/afterintro: 8x
G---||-------------------------||---------------------------------------
D---||-------------------------||---------------------------------------
A---||-----0--2--2--3--2--0----||---------------------------------------
E---||---2---------------------||---------------------------------------

G-----------------------------------------------------------------------
D-----------------------------------------------------------------------
A-----------------------------------------------------------------------
E-----------------------------------------------------------------------

Note: play this, then the next bar, 2x
G---||-------------------------------------------||---------------------
D---||-------------------------------------------||---------------------
A---||-------------------------------------------||---------------------
E---||---2--2--0--2--2--0--2--0--2--0--2--0--2---||---------------------

then this, then back. listen to it.
G---------------------------------------||------------------------------
D---------------------------------------||------------------------------
A------0--2--2--3--2--0-----------------||------------------------------
E---2-----------------------------------||------------------------------

G-----------------------------------------------------------------------
D-----------------------------------------------------------------------
A-----------------------------------------------------------------------
E-----------------------------------------------------------------------

NB: at end of 4th repeat, play ne8x bar
G---||-------------------------------||---------------------------------
D---||--------------------2--2--4----||---------------------------------
A---||-----0--2--2--3--3-------------||---------------------------------
E---||---0---------------------------||---------------------------------

and 8th that is. little thingy makes sound good. :)
G---------------------||--------------------------------------||--------
D---4-----------------||--------------------------------------||--------
A------2--0--3--2-----||--------------------------------------||--------
E------------------2--||--------------------------------------||--------

G---------------------------------------------------------||------------
D---------------------------------------------------------||------------
A---------------------------------------------------------||------------
E---------------------------------------------------------||------------

Bridge thingy:
G-----------------------------------------------------------------------
D-----------------------------------------------------------------------
A---9--------9--------9--------9----------------------------------------
E-----------------------------------------------------------------------

4x
G---||----------------------------||------------------------------------
D---||--------------9-------------||------------------------------------
A---||--9--7--8--9-----7--8--9----||------------------------------------
E---||----------------------------||------------------------------------
 
 

Видео