Muse - In Your World (2 вариант), аккорды

Прокрутка
Тональность
Шрифт
100
INTRO PART 1 (Piano 1) (plays the same as the Guitar INTRO)

INTRO PART 1 (Piano 2)

INTRO PART 2 (Guitar) (the last [5] only play the second time)

E|------------------------------------------------------------------|
B|------------------------------------------------------------------|
G|-----7h0------------------------------7h0-------------------------|
E|-5h0-----8h0-7h0-5h0-4h0-5h0-7h0--5h0-----8h0-7h0-5h0-4h0-5h0-7h0-|
A|------------------------------------------------------------------|
E|------------------------------------------------------------------|

E|---------------------------------|
B|---------------------------------|
G|-----7h0-------------------------|
D|-5h0-----8h0-7h0-5h0-4h0-5h0-7h0-|
A|---------------------------------|
E|---------------------------------|

E|-------------------------------------|
B|-------------------------------------|
G|---------------------7h0-------------|
D|-5h0-4h0-5h0-7h0-8h0-----8h0-7h0-[5]-|
A|-------------------------------------|
E|-------------------------------------|

VERSE

BRIDGE

E|-------------------------|
B|-------------------------|
G|-5--7--9--10--9----------|
E|-5--7--9--10--9----8---8-|
A|-3--5--7---8--7----8---8-|
E|-------------------8---8-|

CHORUS (the last [0] only play the first & the second time)

E|-------------------------------------------|
B|-------------------------------------------|
G|-------------------------------------------|
E|----------------8--8------------------7--7-|
A|-10---10--10----8--8----10---10--10---7--7-|
E|--8----8---8----8--8-----8----8---8---7--7-|

E|-------------------------------------------|
B|-------------------------------------------|
G|-------------------------------------------|
D|-------------7--7----------------8--8--[0]-|
A|-7---7--7----7--7----7---7--7----8--8--[0]-|
E|-5---5--5----7--7----5---5--5----8--8--[0]-|

INTRO TO VERSE

E|----------------------------------------------------------|
B|----------------------------------------------------------|
G|-----7h0------------------------------7h0-----------------|
E|-5h0-----8h0-7h0-5h0-4h0-5h0-7h0--5h0-----8h0-7h0-5h0-4h0-|
A|----------------------------------------------------------|
E|----------------------------------------------------------|

E|-----------------------------------------|
B|-----------------------------------------|
G|-------------7h0-------------------------|
D|5h0-7h0--5h0-----8h0-7h0-5h0-4h0-5h0-7h0-|
A|-----------------------------------------|
E|-----------------------------------------|

E|-----------------------------------|
B|-----------------------------------|
G|---------------------7h0-----------|
D|-5h0-4h0-5h0-7h0-8h0-----8h0-7h0-5-|
A|-----------------------------------|
E|-----------------------------------|

OUTRO

E|------------------------------------------------------------------|
B|------------------------------------------------------------------|
G|-----7h0------------------------------7h0-------------------------|
E|-5h0-----8h0-7h0-5h0-4h0-5h0-7h0--5h0-----8h0-7h0-5h0-4h0-5h0-7h0-|
A|------------------------------------------------------------------|
E|------------------------------------------------------------------|

E|---------------------------------|
B|---------------------------------|
G|-----7h0-------------------------|
D|-5h0-----8h0-7h0-5h0-4h0-5h0-7h0-|
A|---------------------------------|
E|---------------------------------|

E|--------------------------------------------------------------------|
B|--------------------------------------------------------------------|
G|---------------------7h0--------------------------------------------|
D|-5h0-4h0-5h0-7h0-8h0-----8h0-7h0--5h0-4h0-5h0-7h0--8h0-7h0-8h0-10h0-|
A|--------------------------------------------------------------------|
E|--------------------------------------------------------------------|

E|---------------------------------------|
B|---------------------------------------|
G|-----------9h0-------9h0-10h0-9h0-10h0-|
D|-8h0-10h0------10h0--------------------|
A|---------------------------------------|
E|---------------------------------------|

E|-----------------------------------------------------------------------------|
B|-----------------------------------------------------------------------------|
G|-12h0-10h0-9h0-10h0--9h0-----------------------------------------------------|
D|-------------------------10h0-8h0-10h0--8h0-10h-8h0-7h0--8h0-10h0-8h0-7h0--5-|
A|-----------------------------------------------------------------------------|
E|-----------------------------------------------------------------------------|

Structure:
Intro Part 1 [Piano 1] x2
Intro Part 1 [Piano 2] x1
Intro Part 2 [Guitar] x2
Verse x1
Bridge x1
Chorus x3
Intro to verse x1
Bridge x1
Chorus x3
Outro x1
 
 

Видео