Muse - Unintended, аккорды

Прокрутка
Тональность
Шрифт
100
 Intro: 
e|--------0------|---------------|--------0----|---------------| 
B|--------0------|--------2-1-0--|----0---0----|--------2-1-0--| 
G|--------1-----1|------1-------2|0h1-----1----|------1-------2| 
D|----2-------2--|----2----------|------2------|----2----------| 
A|---------------|0h2------------|-------------|0h2------------| 
E|0--------------|---------------|0------------|---------------| 
 
e|--------------|2-------------|---------------|2--------------| 
B|--------0-----|----0---------|--------0------|----0----------| 
G|------------2-|--------2-----|------------2--|--------2------| 
D|----1---------|------------1-|----1----------|------------1--| 
A|2-------------|--------------|2--------------|---------------| 
E|--------------|--------------|---------------|---------------| 
 
Verse: 
used in the rest of the song. I?ll 
only write down the first eight bars; 
the rest is just like this: 
 
E Am
e|--------------|0-------------|---------------|0--------------| 
B|--------0-----|----0---------|--------1------|----1----------| 
G|------------1-|--------1-----|------------2--|--------2------| 
D|----2---------|------------2-|----2----------|------------2--| 
A|--------------|--------------|0--------------|---------------| 
E|0-------------|--------------|---------------|---------------| 
You ... 
 
D Gsus4
e|--------------|2-------------|---------------|3--------------| 
B|--------3-----|----3---------|--------3------|----3----------| 
G|----2-------2-|--------2-----|------------0--|--------0------| 
D|0-------------|------------0-|----0----------|------------0--| 
A|--------------|--------------|---------------|---------------| 
E|--------------|--------------|3--------------|---------------| 
 
Here are the chords: 
 
E / Am / D / Gsus4 
C / B7 / E / E 
 
Repeat these chords until the mainpart is over! :) 
 
Outro:  
Am / G - Am / F# - Am / F - Asus2 
Esus4 / Esus4 / Esus4 / E 
 
And in the end:  
e|--| 
B|--| 
G|--| 
D|--| 
A|--| 
E|0-| 
^ 
hold!
 
 

Видео