Muse - Endlessly, аккорды

Прокрутка
Тональность
Шрифт
100
Drum Intro: 
 
Verse: 
 Am --without 1st on B Am E  Emaj 
-------------------|------------------| 
---0---0---0---0---|--1---1---0---1---| 
-------------------|------------------| 
-------------------|------------------| 
-----0---0---0---0-|----0---0---0---0-| 
-------------------|------------------| 
 
|------------------|------------------| 
|--0---0---0---0---|--0---0---0---0---|(Guitar/Keyboard) 
|------------------|-(1)-(1)-(1)-(1)--|(Guiatr/Keyboard) Repeat x4 
|------------------|------------------| 
|----2---2---2---2-|------------------|(Bass?) 
|------------------|----0---0---0---0-| 
 
Chorus: 
--1---1---1---1------1---1----------------------------------------------R 
-----------------------------1---1----1---1---1---1-----1---1---1---1---Е 
------------------------------------------------------------------------P x1 
----0---0---0---0------0---0---0---0------------------------------------Е 
----------------------------------------0---0---0---0-----0---0---0---0-А 
------------------------------------------------------------------------T 
 
--1---1---1---1------1---1----------------------------------------------R 
-----------------------------1---1----1---1---1---1-----1---1---1---1---Е 
------------------------------------------------------------------------P x1 
----0---0---0---0------0---0---0---0------------------------------------Е 
------------------------------------------------------------------------А 
----------------------------------------1---1---1---1-----1---1---1---1-T 
 
--------------------------------------0---0---0---0-----0---0---0---0---R 
-1---1---1---1------1---1---1---1---------------------------------------Е 
------------------------------------------------------------------------P x1 
------------------------------------------------------------------------Е 
---3---3---3---3------3---3---3---3-------------------------------------А 
----------------------------------------0---0---0---0-----0---0---0---0-T 
 
-0---0---0---0------0---0---0---0-----3---3---3---3----1---1---1---1---R 
-------------------(2)-(2)-(2)-(2)-------------------------------------Е 
-----------------------------------------------------------------------P x1 
----------------------------------------0---0---0---0----0---0---0---0-Е 
---1---1---1---1------0---0---0---0------------------------------------А 
-----------------------------------------------------------------------T 
 
-----------------------------------------------------------------------R 
-1---1---1---1------0---0---0---0-----1---1---1---1----1---1---1---1---Е 
-------------------------------------(5)~~~~~~~~~~~~~~-----------------P x1 
-----------------------------------------------------------------------Е 
----------------------------------------3---3---3---3----3---3---3---3-А 
---3---3---3---3------3---3---3---3------------------------------------T 
 
Interlude: 
I think it's played on a keyboard(or something like it)on the cd,bit this is 
tabbed for guitar anyway 
 
-0---0---0---0------1---1---0---0-----0---0---0---0----0---0---0---0----R 
--1---1---1---1------1---1---1---1-----3---3---3---3----0---0---0---0---Е 
---2---2---2---2------2---2---2---2-----2---2---2---2----1---1---1---1--P x2 
------------------------------------------------------------------------Е 
------------------------------------------------------------------------А 
------------------------------------------------------------------------T 
 
Chorus: 
-0---0---0---0------1---1---0---0-----0---0---0---0----0---0---0---0----R 
--1---1---1---1------1---1---1---1-----3---3---3---3----0---0---0---0---Е 
---2---2---2---2------2---2---2---2-----1---1---1---1----1---1---1---1--P x1 
--3p0---0---0---0----3p0---0---0---0------------------------------------Е 
---------------------------------------3p0---0---0---0--3p0---0---0---0-А 
------------------------------------------------------------------------T 
 
-0---0---0---0------1---1---0---0-----0---0---0---0----0---0---0---0----R 
--1---1---1---1------1---1---1---1-----3---3---3---3----0---0---0---0---Е 
---2---2---2---2------2---2---2---2-----1---1---1---1----1---1---1---1--P x1 
--3p0---0---0---0----3p0---0---0---0------------------------------------Е 
---------------------------------------0----------------0---------------А 
-----------------------------------------1---1---1---1----1---1---1---1-T 
 
-0---0---0---0------1---1---0---0-----0---0---0---0----0---0---0---0----R 
--1---1---1---1------1---1---1---1-----3---3---3---3----0---0---0---0---Е 
---2---2---2---2------2---2---2---2-----1---1---1---1----1---1---1---1--P x1 
------------------------------------------------------------------------Е 
----3---3---3---3------3---3---3---3------------------------------------А 
-----------------------------------------0---0---0---0----0---0---0---0-T 
 
-0---0---0---0------1---1---0---0-----0---0---0---0----0---0---0---0----R 
--1---1---1---1------1---1---1---1-----3---3---3---3----0---0---0---0---Е 
---2---2---2---2------2---2---2---2-----1---1---1---1----1---1---1---1--P x1 
-----------------------------------------0---0---0---0----0---0---0---0-Е 
----1---1---1---1------0---0---0---0------------------------------------А 
------------------------------------------------------------------------T 
 
-0---0---0---0------1---1---0---0-----0---0---0---0----0---0---0---0----R 
--1---1---1---1------1---1---1---1-----3---3---3---3----0---0---0---0---Е 
---2---2---2---2------2---2---2---2-----1---1---1---1----1---1---1---1--P x1 
------------------------------------------------------------------------Е 
-----------------------------------------3---3---3---3----3---3---3---3-А 
----3---3---3---3------3---3---3---3------------------------------------T
 
 

Видео