Muse - Dead Star, аккорды

Прокрутка
Тональность
Шрифт
100
 Intro (w/dist.) 
e|---------------------------------|    |--------| 
B|---------------------------------|    |--------| 
G|-7-7-7-7-7-7-7-7-7-7-7-7-7-7-7-7-|    |--------| 
D|-x-x-x-x-x-x-x-x-x-x-x-x-x-x-x-x-| x4 |--------| 
A|-5-5-5-5-5-5-5-5-5-5-5-5-5-5-5-5-|    |-3/15⁄0-| 
D|---------------------------------|    |-3/15⁄0-| 
 
e|----------------------------------------------------------------------| 
B|----------------------------------------------------------------------| 
G|----------------------------------------------------------------------| 
D|----------------------------------------------------------------------| 
A|--5-------0--5-----0--5--------------3--4--5-----0--5-----0--5-----0--| 
D|-----0-0--0-----0--0-----0--5--6--7-----------0--0-----0--0-----0--0--| 
 
e|-----------------------------| 
B|-----------------------------| 
G|-----------------------------| 
D|-----------------------------| x2 
A|--5-----------------3--4--5--| 
D|-----0--5--6--7--0-----------| 
 
e|-----------------------------------------------------------------------| 
B|--10^--------------------------------------10^-------------------------| 
G|--10^--------------------------------------10^-------------------------| 
D|-----------------------------------------------------------------------| 
A|---------5-----0--5-----------------3--4----------5-----0--5-----------| 
D|-------0----0--0-----0--5--6--7--0--------------0----0--0-----0--5--6--| 
 
e|--------------| 
B|--------------| 
G|--------------| 
D|--------------| x2 
A|--------3--4--| 
D|--7--0--------| 
 
Verses (w/slight dist.) 
e|----------------------------------------------------------------------| 
B|--6------6------6------6------6------6------6------6------6-----6-----| 
G|----7------7------7------7------6------6------6------6------5-----5---| 
D|------7------7------7------7------7------7------7------7------7-----7-| 
A|----------------------------------------------------------------------| 
D|----------------------------------------------------------------------| 
 
e|-----------------------------------------------------------------------| 
B|--6------6------6------6------6------6------5------5------5------5-----| 
G|----5------5------4------4------4------4------3------3------3------3---| 
D|------7------7------6------6------6------6------5------5------5------5-| 
A|-----------------------------------------------------------------------| 
D|-----------------------------------------------------------------------| 
 
e|--------------------------------1----------------------1--------------| 
B|--3------3------3------3--------3------------------3-----------3------| 
G|----2------2------2------2------2------------------------------2------| 
D|------4------4------4------4----3-------------------------3-----------| 
A|----------------------------------------------------------------------| 
D|----------------------------------------------------------------------| 
 
e|-------------------------------------------------------------------| 
B|--3------3------3------------------6------6------6------6----------| 
G|----2------2------2------2-----------7------7------7------7--------| 
D|------4------4------4------0----0------7------7------7------7------| 
A|-------------------------------------------------------------------| 
D|-------------------------------------------------------------------| 
 
e|------------------------------------------------------------------------| 
B|--8------8------8------8------8------8------8------8------8------8------| 
G|----7------7------7------7------7------7------7------7------7------7----| 
D|------8------8------8------8------9------9------9------9------8------8--| 
A|------------------------------------------------------------------------| 
D|------------------------------------------------------------------------| 
 
e|------------------------------------------------------------------------| 
B|--8------8------8------8------8------8------7------7------7------7------| 
G|----7------7------6------6------6------6------5------5------5------5----| 
D|------8------8------8------8------8------8------7------7------7------7--| 
A|------------------------------------------------------------------------| 
D|------------------------------------------------------------------------| 
 
e|--------------------------------3---------3-----------------------------| 
B|--7------7------7-------------------------3-----------------------------| 
G|----5------5------5-----------3----3---3--3-----------------------------| 
D|------7-------7------7------5--------5----5--0--0--0--0--0--0--0--0--0--| 
A|---------------------------------------------0--0--0--0--0--0--0--0--0--| 
D|---------------------------------------------0--0--0--0--0--0--0--0--0--| 
 
Chorus (w/dist.) 
e|------------------------------------------------------------------------| 
B|-------------------------------------6--6--6--6--6--6--6--5--5--5--5--5-| 
G|-10-10-10-10-10-10-10-10-10-10-10-10-5--5--5--5--5--5--5--5--5--5--5--5-| 
D|-8--8--8--8--8--8--8--8--8--8--8--8--3--3--3--3--3--3--3--3--3--3--3--3-| 
A|-8--8--8--8--8--8--8--8--8--8--8--8--3--3--3--3--3--3--3--3--3--3--3--3-| 
D|-8--8--8--8--8--8--8--8--8--8--8--8--3--3--3--3--3--3--3--3--3--3--3--3-| 
 
e|-------------------------------------------------------------------| 
B|-------------------------------------------------------------------| 
G|-6--6--6--6--6--6--6--6--6--6--6--6--7--7--7--7--7--7--7-----------| 
D|-7--7--7--7--7--7--7--7--7--7--7--7--8--8--8--8--8--8--8-----------| 
A|-7--7--7--7--7--7--7--7--7--7--7--7--8--8--8--8--8--8--8-----------| 
D|-7--7--7--7--7--7--7--7--7--7--7--7--8--8--8--8--8--8--8--8⁄3/22---| 
 
e|------------------------------------------------------------------------| 
B|-6--6--6--6--6--6--6--6--6--5--5--5-------------------------------------| 
G|-5--5--5--5--5--5--5--5--5--5--5--5--6--6--6--6--6--6--6--6--6--6--6--6-| 
D|-3--3--3--3--3--3--3--3--3--3--3--3--7--7--7--7--7--7--7--7--7--7--7--7-| 
A|-3--3--3--3--3--3--3--3--3--3--3--3--7--7--7--7--7--7--7--7--7--7--7--7-| 
D|-3--3--3--3--3--3--3--3--3--3--3--3--7--7--7--7--7--7--7--7--7--7--7--7-| 
 
Solo (all underlined parts need to be shifted up an octave w/pitch shifter) 
e|--------------------------------------------------------------------------| 
B|--------------------------------------------------------------------------| 
G|--------------------------------------------------------------------------| 
D|-12-0-12-0-12-0-12-0-12-0-12-0-12-0-12-0-12-0-12-0-12-0-12-0-12-0-12-0-12-| 
A|--------------------------------------------------------------------------| 
D|--------------------------------------------------------------------------| 
-------| -------| -------| -----| 
 
e|--------------------------------------------------------------------------| 
B|--------------------------------------------------------------------------| 
G|--------------------------------------------------------------------------| 
D|-13-0-13-0-13-0-13-0-13-0-13-0-13-0-13-0-13-0-13-0-13-0-13-0-13-0-13-0-13-| 
A|--------------------------------------------------------------------------| 
D|--------------------------------------------------------------------------| 
-------| -------| -------| -----| 
 
e|--------------------------------------------------------------------------| 
B|--------------------------------------------------------------------------| 
G|--------------------------------------------------------------------------| 
D|-14-0-14-0-14-0-14-0-14-0-14-0-14-0-14-0-14-0-14-0-14-0-14-0-14-0-14-0-14-| 
A|--------------------------------------------------------------------------| 
D|--------------------------------------------------------------------------| 
-------| -------| -------| -----| 
 
e|-------------------------------------------------------------------------| 
B|-------------------------------------------------------------------------| 
G|-------------------------------------------------------------------------| 
D|-15-0-15-0-15-0-15-0-15-0-15-0-15-0-15-0-15-0-15-0-15--0--0--0--0--0--0--| 
A|-------------------------------------------------------0--0--0--0--0--0--| 
D|-------------------------------------------------------0--0--0--0--0--0--|
 
 

Видео