Muse - Get A Grip (btab), аккорды

Прокрутка
Тональность
Шрифт
100
Intro Riff: x4 
Matt makes some noise at the start, but once the solo kicks in, 
along comes the bass. 
 
G|-----------------------|-------------------------| 
D|-----------------------|-------------------------| 
A|-12--------3---5---6---|--7--------------10--11--| 
E|-----------------------|-------------------------| 
 
Verse 1: x4  
On the fourth time, leave out the 10--11 on A, 
as they go staright into the chorus. 
 
G|-----------------------|-------------------------| 
D|-----------------------|-------------------------| 
A|-12--------3---5---6---|--7--------------10--11--| 
E|-----------------------|-------------------------| 
 
Chorus: x2 
G|--------------------------|--------------------------| 
D|--------------------------|--------------------------| 
A|--5--5--5--5--5--5--5--5--|--5--5--5--5--5--5--5--5--| 
E|--------------------------|--------------------------| 
 
G|--------------------------|--------------------------| 
D|--------------------------|--------------------------| 
A|--8--8--8--8--8--8--8--8--|--8--8--8--8--8--8--8--8--| 
E|--------------------------|--------------------------| 
 
G|--------------------------|--------------------------| 
D|--------------------------|--------------------------| 
A|--------------------------|--------------------------| 
E|--8--8--8--8--8--8--8--8--|--8--8--8--8--8--8--8--8--| 
 
G|--------------------------|--------------------------| 
D|--------------------------|--------------------------| 
A|--7--7--7--7--7--7--7--7--|--7--7--7--7--7--7--7--7--| 
E|--------------------------|--------------------------| 
 
Verse 2: x4  
On the fourth time, leave out the 10--11 on A, 
as they go staright into the chorus. 
 
G|-----------------------|-------------------------| 
D|-----------------------|-------------------------| 
A|-12--------3---5---6---|--7--------------10--11--| 
E|-----------------------|-------------------------| 
 
Chorus 2: x2 
G|--------------------------|--------------------------| 
D|--------------------------|--------------------------| 
A|--5--5--5--5--5--5--5--5--|--5--5--5--5--5--5--5--5--| 
E|--------------------------|--------------------------| 
 
G|--------------------------|--------------------------| 
D|--------------------------|--------------------------| 
A|--8--8--8--8--8--8--8--8--|--8--8--8--8--8--8--8--8--| 
E|--------------------------|--------------------------| 
 
G|--------------------------|--------------------------| 
D|--------------------------|--------------------------| 
A|--------------------------|--------------------------| 
E|--8--8--8--8--8--8--8--8--|--8--8--8--8--8--8--8--8--| 
 
G|--------------------------|--------------------------| 
D|--------------------------|--------------------------| 
A|--7--7--7--7--7--7--7--7--|--7--7--7--7--7--7--7--7--| 
E|--------------------------|--------------------------| 
 
Riff: x4 
G|-----------------------|-----------------------| 
D|-----------------------|-----------------------| 
A|--7--------------------|--7---------------7----| 
E|------3---5---3---0----|------3---5---3--------| 
 
Solo: x4 
On the fourth time, leave out the 10--11 on A, 
as they go staright into the chorus. 
 
G|-----------------------|-------------------------| 
D|-----------------------|-------------------------| 
A|-12--------3---5---6---|--7--------------10--11--| 
E|-----------------------|-------------------------| 
 
Chorus 3: x2 
G|--------------------------|--------------------------| 
D|--------------------------|--------------------------| 
A|--5--5--5--5--5--5--5--5--|--5--5--5--5--5--5--5--5--| 
E|--------------------------|--------------------------| 
 
G|--------------------------|--------------------------| 
D|--------------------------|--------------------------| 
A|--8--8--8--8--8--8--8--8--|--8--8--8--8--8--8--8--8--| 
E|--------------------------|--------------------------| 
 
G|--------------------------|--------------------------| 
D|--------------------------|--------------------------| 
A|--------------------------|--------------------------| 
E|--8--8--8--8--8--8--8--8--|--8--8--8--8--8--8--8--8--| 
 
G|--------------------------|--------------------------| 
D|--------------------------|--------------------------| 
A|--7--7--7--7--7--7--7--7--|--7--7--7--7--7--7--7--7--| 
E|--------------------------|--------------------------| 
 
Riff: x4 
G|-----------------------|-----------------------| 
D|-----------------------|-----------------------| 
A|--7--------------------|--7---------------7----| 
E|------3---5---3---0----|------3---5---3--------| 
 
 

Видео