Muse - Butterflies And Hurricanes (btab), аккорды

Прокрутка
Тональность
Шрифт
100
------------------|------------------|----------------------------------| 
------------------|------------------|--0-0-0-0-0-0-0-0-0-0-0-0-0-0-0-0-| 
------------------|------------------|----------------------------------| 
------------------|------------------|---------------------------------- 
 
----------------------------------|----------------------------------| 
--0-0-0-0-0-0-0-0-0-0-0-0-0-0-0-0-|--0-0-0-0-0-0-0-0-0-0-0-0-0-0-0-0-| 
----------------------------------|----------------------------------| 
----------------------------------|----------------------------------| 
 
----------------------------------|---------------------------------| 
--0-0-0-0-0-0-0-0-0-0-0-0-0-0-0-0-|--0-0-0-0-0-0-0-0-0-0-0-0--------| 
----------------------------------|--------------------------5-5-5/-| 
----------------------------------|---------------------------------| 
 
--------------------------------------------------| 
--------------------------------------------------| 
--17-17-17-16-16-16-15-15-15-14-14-14-13-13-12-12/| 
--------------------------------------------------| 
 
----------------------------------|----------------------------------| 
----------------------------------|----------------------------------| 
----------------------------------|----------------------------------| 
--6-6-6-6-6-6-6-6-6-6-6-6-6-6-6-6-|--2-2-2-2-2-2-2-2-2-2-2-2-2-2-2-2-| 
 
----------------------------------|----------------------------------| 
----------------------------------|----------------------------------| 
--0-0-0-0-0-0-0-0-0-0-0-0-0-0-0-0-|--0-0-0-0-0-0-0-0-0-0-0-0-0-0-0-0-| 
----------------------------------|----------------------------------| 
 
----------------------------------|----------------------------------| 
----------------------------------|----------------------------------| 
--1-1-1-1-1-1-1-1-1-1-1-1-1-1-1-1-|--------------------------------x2 
----------------------------------|--0-0-0-0-0-0-0-0-0-0-0-0-0-0-0-0-| 
 
----------------------------------|----------------------------------| 
----------------------------------|----------------------------------| 
--1-1-1-1-1-1-1-1-1-1-1-1-1-1-1-1-|----------------------------------| 
----------------------------------|--3-3-3-3-3-3-3-3-3-3-3-3-3-3-3-3-| 
 
----------------------------------|----------------------------------| 
----------------------------------|----------------------------------| 
----------------------------------|----------------------------------| 
--4-4-4-4-4-4-4-4-4-4-4-4-4-4-4-4-|--5-5-5-5-5-5-5-5-5-5-5-5-5-5-5-5-| 
 
----------------------------------|----------------------------------| 
----------------------------------|----------------------------------| 
--1-1-1-1-1-1-1-1-1-1-1-1-1-1-1-1-|--------------------------------x2 
----------------------------------|--3-3-3-3-3-3-3-3-3-3-3-3-3-3-3-3-| 
 
----------------------------------|----------------------------------| 
----------------------------------|----------------------------------| 
--0-0-0-0-0-0-0-0-0-0-0-0-0-0-0-0-|--0-0-0-0-0-0-0-0-0-0-0-0-0-0-0-0-| 
----------------------------------|----------------------------------| 
 
------------------------|------------------------| 
------------------------|------------------------| 
--0---7---4---1------1--|--0---7---4---1------1--| 
------------------5-----|------------------5----- 
 
----------------------------------|----------------------------------| 
--0-0-0-0-0-0-0-0-0-0-0-0-0-0-0-0-|--0-0-0-0-0-0-0-0-0-0-0-0-0-0-0-0-| 
----------------------------------|----------------------------------| 
----------------------------------|--------------------------------x2 
 
----------------------------------|------------------------| 
--0-0-0-0-0-0-0-0-0-0-0-0-0-0-0-0-|------------------------| 
----------------------------------|--5---4---3---2---1--0--| 
----------------------------------|------------------------| 
 
----------------------------------|----------------------------------| 
----------------------------------|----------------------------------| 
----------------------------------|----------------------------------| 
--6-6-6-6-6-6-6-6-6-6-6-6-6-6-6-6-|--2-2-2-2-2-2-2-2-2-2-2-2-2-2-2-2-| 
 
----------------------------------|----------------------------------| 
----------------------------------|-------------------------------x2 
--0-0-0-0-0-0-0-0-0-0-0-0-0-0-0-0-|--0-0-0-0-0-0-0-0-0-0-0-0-0-0-0-0-| 
----------------------------------|----------------------------------| 
 
----------------------------------|----------------------------------| 
--0-0-0-0-0-0-0-0-0-0-0-0-0-0-0-0-|----------------------------------| 
----------------------------------|--5-5-5-5-5-5-5-5-5-5-5-5-5-5-5-5-| 
----------------------------------|----------------------------------| 
 
----------------------------------|----------------------------------| 
----------------------------------|----------------------------------| 
----------------------------------|----------------------------------| 
--6-6-6-6-6-6-6-6-6-6-6-6-6-6-6-6-|--2-2-2-2-2-2-2-2-2-2-2-2-2-2-2-2-| 
 
----------------------------------|----------------------------------| 
----------------------------------|----------------------------------| 
--0-0-0-0-0-0-0-0-0-0-0-0-0-0-0-0-|--0-0-0-0-0-0-0-0-0-0-0-0-0-0-0-0-| 
----------------------------------|----------------------------------| 
 
----------------------------------|----------------------------------| 
----------------------------------|----------------------------------| 
--1-1-1-1-1-1-1-1-1-1-1-1-1-1-1-1-|----------------------------------| 
----------------------------------|--0-0-0-0-0-0-0-0-0-0-0-0-0-0-0-0-| 
 
----------------------------------|----------------------------------| 
----------------------------------|----------------------------------| 
--1-1-1-1-1-1-1-1-1-1-1-1-1-1-1-1-|----------------------------------| 
----------------------------------|--0-0-0-0-0-0-0-0-0-0-0-0-0-0-0-0-| 
 
----------------------------------|----------------------------------| 
----------------------------------|----------------------------------| 
--1-1-1-1-1-1-1-1-1-1-1-1-1-1-1-1-|----------------------------------| 
----------------------------------|--3-3-3-3-3-3-3-3-3-3-3-3-3-3-3-3-| 
 
----------------------------------|----------------------------------| 
----------------------------------|----------------------------------| 
----------------------------------|----------------------------------| 
--4-4-4-4-4-4-4-4-4-4-4-4-4-4-4-4-|--5-5-5-5-5-5-5-5-5-5-5-5-5-5-5-5-| 
 
----------------------------------|----------------------------------| 
----------------------------------|-------------------------------x2 
--1-1-1-1-1-1-1-1-1-1-1-1-1-1-1-1-|----------------------------------| 
----------------------------------|--3-3-3-3-3-3-3-3-3-3-3-3-3-3-3-3-| 
 
----------------------------------|----------------------------------| 
----------------------------------|----------------------------------| 
--0-0-0-0-0-0-0-0-0-0-0-0-0-0-0-0-|--0-0-0-0-0-0-0-0-0-0-0-0-0-0-0-0-| 
----------------------------------|----------------------------------| 
 
------------------------|------------------------| 
------------------------|------------------------| 
--0---7---4---1------1--|--0---7---4---1------1--| 
------------------5-----|------------------5-----| 
 
----------------------------------|----------------------------------| 
--0-0-0-0-0-0-0-0-0-0-0-0-0-0-0-0-|--0-0-0-0-0-0-0-0-0-0-0-0-0-0-0-0-| 
----------------------------------|--------------------------------x6 
----------------------------------|----------------------------------| 
 
----------------------------------|----------------------------------| 
----------------------------------|--------------------------------x2 
--1-1-1-1-1-1-1-1-1-1-1-1-1-1-1-1-|----------------------------------| 
----------------------------------|--0-0-0-0-0-0-0-0-0-0-0-0-0-0-0-0 
 
----------------------------------|----------------------------------| 
----------------------------------|----------------------------------| 
--1-1-1-1-1-1-1-1-1-1-1-1-1-1-1-1-|----------------------------------| 
----------------------------------|--3-3-3-3-3-3-3-3-3-3-3-3-3-3-3-3-| 
 
----------------------------------|----------------------------------| 
----------------------------------|----------------------------------| 
----------------------------------|----------------------------------| 
--4-4-4-4-4-4-4-4-4-4-4-4-4-4-4-4-|--5-5-5-5-5-5-5-5-5-5-5-5-5-5-5-5-| 
 
----------------------------------|----------------------------------| 
----------------------------------|--------------------------------x2 
--1-1-1-1-1-1-1-1-1-1-1-1-1-1-1-1-|----------------------------------| 
----------------------------------|--3-3-3-3-3-3-3-3-3-3-3-3-3-3-3-3-| 
 
----------------------------------|----------------------------------| 
----------------------------------|----------------------------------| 
--0-0-0-0-0-0-0-0-0-0-0-0-0-0-0-0-|--0-0-0-0-0-0-0-0-0-0-0-0-0-0-0-0-| 
----------------------------------|----------------------------------| 
 
------------------------|------------------------|-------------------|| 
------------------------|------------------------|-------------------|| 
--0---7---4---1------1--|--0---7---4---1------1--|-------------------|| 
------------------5-----|------------------5-----|--0----------------||
 
 

Видео