Muse - Escape, аккорды

Прокрутка
Тональность
Шрифт
100
E|---------------------------------| 
B|--3---------------------2------0-| 
G|--2---------------------0------0-| 
D|--0---------------------0------0-| 
A|---------------------------------| 
E|---------------------------------| 
you would say any thing 
you would try any thing 
to esape your meaningless 
your insig nif icance 

E|-----------------------------------------------------------------------------| 
B|--------------2---------------3-------------3------------0-------------0-----| 
G|--------3------3----------------4-------------4------------4-------------4---| 
D|-----4----4------4----------------4-------------4------------4-------------3-| 
A|--4-------------------4----2-------------0-----------------------------------| 
E|-------------------------------------------------------4-------------3-------| 
you're uncon trol able and we are un 
 
E|---------------2-------------------------------------------------------------| 
B|----0------------2-------------------------2---------------3-----------3-----| 
G|-------4------------3--------------3---------3---------------4-----------4---| 
D|----------2------------2--------4----4---------4---------------4-----------4-| 
A|------------------------------4---------------------4----2-----------0-------| 
E|-2---------------------------------------------------------------------------| 
lov able and i dont want you to think that i care 
 
E|------------------------------------------2------| 
B|-----0-------------0------------------------2----| 
G|-------4--------------4------------------------3-| 
D|----------4--------------3-----------------------| 
A|-------------------------------------------------| 
E|--4-------------3--------------2-----------------| 
i never would i never could again 

E|-----------------------------------| 
B|----------3-----3---2---0----------| 
G|--4--4-----------------------------| 
D|--4--4----------------------7----5-| 
A|--2--2----------------------5----5-| 
E|--2--2----------------------3----3-| 
why be such a mon ster 
why cantyoujust love her 
 
E|-------------7--------------------------------------------| 
B|-------------7--------------------------------------------| 
G|---------9bh.....bb--11---12-- b=bend h=hold bb=bend back-| 
D|--9--9---------------12---12------------------------------| 
A|--9--9---------------10---10------------------------------| 
E|--7--7---------------10---10------------------------------| 
you bully from a distance 
your brainneeds 
someassistance 

D|--7----------------------5-----------------4-| 
A|--5----------------------5-----------------5-| 
E|--5----------------------3-----------------2-| 
but i'll still take all the blame cos you and me are both 
and it's drivimg me mad it's driving me 
 
D|--5------------------------ 
A|--5------------------------ 
E|--3------------------------ 
one and the same 
mad 
E|--2----------------2-------2---------------------------| 
B|--2----------------3-------3-------------------------0-| 
G|--3----------------4-------4-------------------------4-| 
D|--4----------------4-------4-------------------------4-| 
A|--4----------------2-------0---------------------------| 
E|--2--------------------------------------------------4-| 
i'll take back all the things that i said i did'nt 
 
E|--------------------------------------------2-| 
B|--0------------------------------------0----2-| 
G|--4------------------------------------4----3-| 
D|--3------------------------------------2----2-| 
A|----------------------------------------------| 
E|--3------------------------------------2------| 
realise i was talking to the living dead 
Repeat chords with words 
 
i dont want you to think that i care i never would i never could again 
 
for placement see first section but don't pick, just strum 
 
E|---------------------------------------------------------------------| 
B|------#---------------------------------- #this is played with synth-| 
G|--4-4-11-11-11-11-11-11----------------------------------------------| 
D|--4-4-----------------------------7--5-- times two-------------------| 
A|--2-2-----------------------------5--5-------------------------------| 
E|--2-2-----------------------------3--3-------------------------------| 
 
E|----10b-10b---10b-10b---10b--------------------| 
B|----10b-10b---10b-10b---10b--------------------| 
G|----10b-10b---10b-10b---10b--------------------| 
D|------------------------------------------7--5-| 
A|------------------------------------------5--5-| 
E|------------------------------------------3--3-| 
 
E|--------------------------------------------------------------------------| 
B|---#-------------------------------------------------------2 #synth again-| 
G|---4-4-4-4-4-4-4-4-11-11-11-11-11--------------------------2--------------| 
D|-------------------------------------------------7--5------0--------------| 
A|-------------------------------------------------5--5---------------------| 
E|-------------------------------------------------3--3---------------------|
 
 

Видео