Muse - Bliss, аккорды

Прокрутка
Тональность
Шрифт
100
Intro 
Very, very light distortion sound with maybe 
a touch of phaser or something like that. 
Let ring... 
E|-11----------------11-------------------10-----------------10----------------| 
B|------13-------13--------13--------13--------11--------11--------11-------11-| 
G|-----------12-----------------12-------------------10-----------------10-----| 
D|-----------------------------------------------------------------------------| 
A|-----------------------------------------------------------------------------| 
E|-----------------------------------------------------------------------------| 
 
Matt stops playing here and lets the chord 
ring for a second then continues 
E|--13----------------13-----------------11-------------------11-| 
B|-------13-------13-------13--------13--------13--------13------| 
G|------------13----------------13-------------------12----------| 
D|---------------------------------------------------------------| 
A|---------------------------------------------------------------| 
E|---------------------------------------------------------------| 
 
E|-------------10----------------13-------------------13------------------| 
B|---------11-------11-------11--------13--------13---------13---------13-| 
G|----10-----------------10------------------13-------------------13------| 
D|------------------------------------------------------------------------| 
A|------------------------------------------------------------------------| 
E|------------------------------------------------------------------------| 
 
Increase Volume and distortion a bit as you play these final chords ⁄/ 
E|-11----------------11---11---11---11---11---11---11---11---11---11-----------| 
B|------13-------13-------------12---12---13---13---13---13---13---13----x-x-x-| 
G|-----------12---------------------------12---12---12---12---12---12----x-x-x-| 
D|-----------------------------------------------------------------------x-x-x-| 
A|-----------------------------------------------------------------------x-x-x-| 
E|-----------------------------------------------------------------------------| 
 
Distortion on 
E|-----------------------------------------------------------------------------| 
B|-----------------------------------------------------------------------------| 
G|-5-5-5-5--x-x-x--3-3--x-x-x--3-3-----------------x-x-x--5-5--x-x-x--5-5--x-x-| 
D|-5-5-5-5--x-x-x--3-3--x-x-x--3-3--x-x---3-3-3-3--x-x-x--5-5--x-x-x--5-5--x-x-| 
A|-3-3-3-3--x-x-x--1-1--x-x-x--1-1--x-x---3-3-3-3--x-x-x--3-3--x-x-x--3-3--x-x-| 
E|----------------------------------x-x--1-1-1-1-------------------------------| 
 
E|-------------------------------------------------------------------------| 
B|-------------------------------------------------------------------------| 
G|--3-3-3-3---------------------------x-x--5-5-5-5--x-x-x--5-5--x-x-x--5-5-| 
D|--3-3-3-3---x-x-x--3-3--x-x-x--3-3--x-x--5-5-5-5--x-x-x--5-5--x-x-x--5-5-| 
A|--1-1-1-1---x-x-x--3-3--x-x-x--3-3--x-x--3-3-3-3--x-x-x--3-3--x-x-x--3-3-| 
E|------------x-x-x--1-1--x-x-x--1-1---------------------------------------| 
 
Verse 
E|-----------------------------------------------------11----------------------| 
B|----------------------------------------------------------13-----------------| 
G|---------------------------------------------5*6/12------------12------------| 
D|-5~~--5/3~~--3/1~~--1/5~~--5/3~~--3/1~~--1/5---------------------------------| 
A|----------------------------------You should hit the 6th fret on the G about-| 
E|-------------------------------11 or 12 times before sliding up-to the 12th--| 
 
E|-11----------------11-------------------10-----------------10----------------| 
B|------13-------13--------13--------13--------11--------11--------11-------11-| 
G|-----------12-----------------12------------------10------------------10-----| 
D|-----------------------------------------------------------------------------| 
A|-----------------------------------------------------------------------------| 
E|-----------------------------------------------------------------------------| 
 
E|-13---------------13-----------------11-------------------11-----------------| 
B|-----13-------13-------13--------13--------13--------13---------13--------13-| 
G|---------13-----------------13-------------------12------------------12------| 
D|-----------------------------------------------------------------------------| 
A|-----------------------------------------------------------------------------| 
E|-----------------------------------------------------------------------------| 
 
E|-10---------------10----------------13------------------13-----------------| 
B|------11------11-------11-------11--------13--------13--------13--------13-| 
G|----------10----------------10-----------------13------------------13------| 
D|---------------------------------------------------------------------------| 
A|---------------------------------------------------------------------------| 
E|---------------------------------------------------------------------------| 
 
Increase Volume and distortion a bit as you play these final chords ⁄/ 
E|-11----------------11---11---11---11---11---11---11---11---11---11-----------| 
B|------13-------13-------------12---12---13---13---13---13---13---13----x-x-x-| 
G|-----------12---------------------------12---12---12---12---12---12----x-x-x-| 
D|-----------------------------------------------------------------------x-x-x-| 
A|-----------------------------------------------------------------------x-x-x-| 
E|-----------------------------------------------------------------------------| 
 
Chorus: 
Light Distortion: The opens between occur naturally as you change chord position 
C Am G/C 
E|---0----0----0----0----------0---0---0---0-----------0-----------------------| 
B|---13---13---13---13---------11--11--11--11--------------13------------------| 
G|----0---0-----0----0----0---12--12--12---12----0----------0----do last chord-| 
D|---14---14---14---14----0---12--12--12---12----0-----0---14-----eight times--| 
A|---15---15---15---15----0----0---0---0---0-----0-----------------------------| 
E|----------------------------------------------------15--15-------------------| 
 
C Am E 
E|---0-----0-----0----0---------0---0---0---0---------------0------------------| 
B|---13---13---13---13----------11--11--11--11---------------0-----------------| 
G|----0----0----0----0----0-----12--12--12--12----0---------11---do last chord-| 
D|---14---14---14---14----0-----12--12--12--12----0----11---12----eight times--| 
A|---15---15---15---15----0-----0---0---0---0-----0----12---12-----------------| 
E|---------------------------------------------------0-----0-------------------| 
 
E|--------| 
B|--------| 
G|--------| 
D|---15: -| 
A|---15: -| 
E|--13: --| 
 
Distortion on 
E|-----------------------------------------------------------------------------| 
B|-----------------------------------------------------------------------------| 
G|-5-5-5-5--x-x-x--3-3--x-x-x--3-3-----------------x-x-x--5-5--x-x-x--5-5--x-x-| 
D|-5-5-5-5--x-x-x--3-3--x-x-x--3-3--x-x---3-3-3-3--x-x-x--5-5--x-x-x--5-5--x-x-| 
A|-3-3-3-3--x-x-x--1-1--x-x-x--1-1--x-x---3-3-3-3--x-x-x--3-3--x-x-x--3-3--x-x-| 
E|----------------------------------x-x--1-1-1-1-------------------------------| 
 
E|-------------------------------------------------------------------------| 
B|-------------------------------------------------------------------------| 
G|--3-3-3-3---------------------------x-x--5-5-5-5--x-x-x--5-5--x-x-x--5-5-| 
D|--3-3-3-3---x-x-x--3-3--x-x-x--3-3--x-x--5-5-5-5--x-x-x--5-5--x-x-x--5-5-| 
A|--1-1-1-1---x-x-x--3-3--x-x-x--3-3--x-x--3-3-3-3--x-x-x--3-3--x-x-x--3-3-| 
E|-----------x-x-x--1-1--x-x-x--1-1----------------------------------------| 
Verse 
E|-----------------------------------------------------1-1---------------------| 
B|----------------------------------------------------------13-----------------| 
G|---------------------------------------------5*6/12------------12------------| 
D|-5~~--5/3~~--3/1~~--1/5~~--5/3~~--3/1~~--1/5---------------------------------| 
A|----------------------------------You should hit the 6th fret on the G about-| 
E|-------------------------------11 or 12 times before sliding up-to the 12th--| 
 
E|-11----------------11-------------------10----------------10-----------------| 
B|------13-------13--------13--------13--------11-------11--------11--------11-| 
G|-----------12-----------------12-----------------10------------------10------| 
D|-----------------------------------------------------------------------------| 
A|-----------------------------------------------------------------------------| 
E|-----------------------------------------------------------------------------| 
 
E|-13----------------13-----------------11------------------11-----------------| 
B|------13-------13-------13--------13--------13-------13---------13--------13-| 
G|----------13-----------------13------------------12------------------12------| 
D|-----------------------------------------------------------------------------| 
A|-----------------------------------------------------------------------------| 
E|-----------------------------------------------------------------------------| 
 
E|--10---------------10----------------13------------------13-----------------| 
B|-------11------11-------11-------11--------13--------13--------13--------13-| 
G|-----------10----------------10-----------------13------------------13------| 
D|----------------------------------------------------------------------------| 
A|----------------------------------------------------------------------------| 
E|----------------------------------------------------------------------------| 
 
Increase Volume and distortion a bit as you play these final chords ⁄/ 
E|-11----------------11---11---11---11---11---11---11---11---11---11-----------| 
B|------13-------13-------------12---12---13---13---13---13---13---13----x-x-x-| 
G|-----------12---------------------------12---12---12---12---12---12----x-x-x-| 
D|-----------------------------------------------------------------------x-x-x-| 
A|-----------------------------------------------------------------------x-x-x-| 
E|-----------------------------------------------------------------------------| 
Chorus: 
Light Distortion: The opens between occur naturally as you change chord position 
C Am G/C 
E|--0----0----0----0----------0---0---0---0----------------0-------------------| 
B|--13---13---13---13---------11--11--11--11---------------13------------------| 
G|---0---0-----0----0----0----12--12--12--12-----0----------0----do last chord-| 
D|--14---14---14---14----0----12--12--12--12-----0-----0---14-----eight times--| 
A|--15---15---15---15----0-----0---0---0---0-----0-----------------------------| 
E|----------------------------------------------------15--15-------------------| 
 
C Am E 
E|---0----0----0----0----------0---0---0---0---------------0-------------------| 
B|---13---13---13---13---------11--11--11--11---------------0------------------| 
G|----0----0----0----0----0----12--12--12--12----0---------11----do last chord-| 
D|---14---14---14---14----0----12--12--12--12----0----11---12-----eight times--| 
A|---15---15---15---15----0-----0---0---0---0----0----12---12------------------| 
E|---------------------------------------------------0-----0-------------------| 
 
E|--------| 
B|--------| 
G|--------| 
D|---15: -| 
A|---15: -| 
E|--13: --| 
 
E|-11----------------11-----------------10-------------------10----------------| 
B|-----13-------13--------13--------13--------11--------11--------11--------11-| 
G|----------12-----------------12------------------10-------------------10-----| 
D|-----------------------------------------------------------------------------| 
A|-----------------------------------------------------------------------------| 
E|-----------------------------------------------------------------------------| 
 
E|-13---------------13-----------------11------------------11------------------| 
B|-----13-------13-------13--------13--------13--------13---------13--------13-| 
G|----------13----------------13------------------12-------------------12------| 
D|-----------------------------------------------------------------------------| 
A|-----------------------------------------------------------------------------| 
E|-----------------------------------------------------------------------------| 
 
E|--10---------------10----------------13-------------------13-----------------| 
B|-------11------11-------11-------11---------13--------13--------13--------13-| 
G|-----------10----------------10------------------13-------------------13-----| 
D|-----------------------------------------------------------------------------| 
A|-----------------------------------------------------------------------------| 
E|-----------------------------------------------------------------------------| 
 
Increase Volume and distortion as you play these final chords ⁄/ 
E|--11---11---11---11---11---11---11---11-------------------------------| 
B|---13---13---13---13---13---13---13---13----x-x-x-x-x---x-x-x/--------| 
G|---12---12---12---12---12---12---12---12----x-x-x-x-x---x-x-x/--------| 
D|--------------------------------------------x-x-x-x-x---x-x-x/--------| 
A|--------------------------------------------x-x-x-x-x---x-x-x/---12/3-| 
E|----------------------------------------------------------------------| 
 
E|-----------------------------------------------------------------------------| 
B|-----------------------------------------------------------------------------| 
G|--5-5-5-5-5-5-5-5-5/7-7-7-7-7-7-7-7-7---10-10--10---8--8--7--7--7/8--8--8--8-| 
D|--x-x-x-x-x-x-x-x-x/x-x-x-x-x-x-x-x-x----x---x--x---x--x--x--x--x-x--x--x--x-| 
A|--3-3-3-3-3-3-3-3-3/5-5-5-5-5-5-5-5-5----8---8--8---6--6--5--5--5/6--6--6--6-| 
E|-----------------------------------------------------------------------------| 
 
E|-----------------------------------------------------------------------------| 
B|-------------------------------------------------------------------------x-x-| 
G|-5-5-5-7-7-7-7-7-7-7--5-5-5-5---3-3-3-3/5-5-5-5-5-5-5-5-5-5-5-5-5-5-5-5--x-x-| 
D|-x-x-x-x-x-x-x-x-x-x--x-x-x-x---x-x-x-x-x-x-x-x-x-x-x-x-x-x-x-x-x-x-x-x--x-x-| 
A|-3-3-3/5-5-5-5-5-5-5--3-3-3-3---1-1-1-1/3-3-3-3-3-3-3-3-3-3-3-3-3-3-3-3--x-x-| 
E|-----------------------------------------------------------------------------| 
 
Chorus: 
Light Distortion: The opens between occur naturally as you change chord position 
C Am G/C 
E|---0:----------------------------0:------------------------------0:--| 
B|---13:---------------------------11:-----------------------------13:-| 
G|----0:---------------------------12:------------------------------0:-| 
D|---14:---------------------------12:-----------------------------14:-| 
A|---15:----------------------------0:---------------------------------| 
E|----------------------------------------------------------------15:--| 
 
On the cd then after the second Am Matt and the band improvise and trash their 
equipment but this is what I’d play if I was playing it to the end so see what 
you think 
 
C Am E 
E|---0----0----0----0----------0---0----0---0--------------0-------------------| 
B|---13---13---13---13---------11--11--11--11---------------0------------------| 
G|----0----0----0----0----0----12--12--12--12----0---------11----do last chord-| 
D|---14---14---14---14----0----12--12--12--12----0----11---12-----eight times--| 
A|---15---15---15---15----0-----0---0---0---0----0----12---12------------------| 
E|----------------------------------------------------0----0-------------------| 
 
E|--13:--| 
B|---13:-| 
G|---13:-| 
D|---15:-| 
A|---15:-| 
E|--13:--| 
 
E|-11----------------11-----------------10------------------10-----------------| 
B|------13------13--------13--------13--------11--------11--------11--------11-| 
G|-----------12----------------12------------------10-------------------10-----| 
D|-----------------------------------------------------------------------------| 
A|-----------------------------------------------------------------------------| 
E|-----------------------------------------------------------------------------| 
 
E|--13----------------13-----------------11-------------------11---------------| 
B|-------13-------13-------13--------13--------13--------13--------13-------13-| 
G|------------13----------------13------------------12------------------12-----| 
D|-----------------------------------------------------------------------------| 
A|-----------------------------------------------------------------------------| 
E|-----------------------------------------------------------------------------| 
 
E|-------------10-----------------13-------------------13------------------| 
B|---------11-------11-------11---------13--------13---------13---------13-| 
G|----10-----------------10-------------------13-------------------13------| 
D|-------------------------------------------------------------------------| 
A|-------------------------------------------------------------------------| 
E|-------------------------------------------------------------------------| 
 
Slowing down gradually……. 
E|--11-----------------11------------------11-----11--| 
B|-------13-------13--------13--------13-----------13-| 
G|------------12-----------------12----------------12-| 
D|----------------------------------------------------| 
A|----------------------------------------------------| 
E|----------------------------------------------------|
 
 

Видео