Muse - Cave, аккорды

Прокрутка
Тональность
Шрифт
100
E|------x-x-x-x-----------------x-x---|--x-x-x-x-----------------x-x-| 
B|------x-x-x-x-----------------x-x---|--x-x-x-x-----------------x-x-| 
G|------x-x-x-x---7-------------x-x---|--x-x-x-x--7--------------x-x-| 
D|----6-6-6-6-6---x-------------x-x---|--6-6-6-6--x--------------x-x-| 
A|----x-x-x-x-x---x-------------------|--x-x-x-x--x------------------| 
E|----x-x-x-x-x---x-------------------|--x-x-x-x--x------------------| 
 
E|------x-x-x-x-----------------x-x---|--x-x-x-x-----------------x-x-| 
B|------x-x-x-x-----------------x-x---|--x-x-x-x-----------------x-x-| 
G|------x-x-x-x---7-------------x-x---|--x-x-x-x--7--------------x-x-| 
D|----6-6-6-6-6---x-------------x-x---|--6-6-6-6--x--------------x-x-| 
A|----x-x-x-x-x---x-------------------|--x-x-x-x--x------------------| 
E|----x-x-x-x-x---x-------------------|--x-x-x-x--x------------------| 
 
Full bend Full bend 
E|----x-x-x-x-x----------x-x----|----x-x-x-x-x----------x-x----| 
B|----x-x-x-x-x-5^-------x-x----|----x-x-x-x-x-5^-------x-x----| 
G|----x-x-x-x-x-7^-------x-x----|----x-x-x-x-x-7^-------x-x----| 
D|----6-6-6-6-6----------x-x----|----6-6-6-6-6----------x-x----| 
A|----5-5-5-5-5-----------------|----5-5-5-5-5-----------------| 
E|----x-x-x-x-x-----------------|----x-x-x-x-x-----------------| 
 
E|----x-x-x-x-----------x-x-| 
B|----x-x-x-x-5^--------x-x-| 
G|----x-x-x-x-7^--------x-x-| 
D|----6-6-6-6-----------x-x-| 
A|----5-5-5-5---------------| 
E|----x-x-x-x---------------| 
 
E|----x-x-x-x-x--x-x------------|----x-x-x-x-x--x-x------------| 
B|----x-x-x-x-x--x-x-6----------|----x-x-x-x-x--x-x-6----------| 
G|----x-x-x-x-x--x-x-x--7-7-----|----x-x-x-x-x--x-x-x--7-7-----| 
D|----6-6-6-6-6--x-x-x--0-0-5-7-|----6-6-6-6-6--x-x-x--0-0-5-7-| 
A|----5-5-5-5-5------x------x-x-|----5-5-5-5-5------x------x-x-| 
E|----x-x-x-x-x-------------x-x-|----x-x-x-x-x-------------x-x-| 
 
E|----x-x-x-x-x--x-x------------| 
B|----x-x-x-x-x--x-x-6----------| 
G|----x-x-x-x-x--x-x-x--7-7-----| 
D|----6-6-6-6-6--x-x-x--0-0-5-7-| 
A|----5-5-5-5-5------x------x-x-| 
E|----x-x-x-x-x-------------x-x-| 
 
E|----x-x-x-x-x--x-x------------|----x-x-x-x-x--x-x------------| 
B|----x-x-x-x-x--x-x-6----------|----x-x-x-x-x--x-x-6----------| 
G|----x-x-x-x-x--x-x-x--7-7-----|----x-x-x-x-x--x-x-x--7-7-----| 
D|----6-6-6-6-6--x-x-x--0-0-5-7-|----6-6-6-6-6--x-x-x--0-0-5-7-| 
A|----5-5-5-5-5------x------x-x-|----5-5-5-5-5------x------x-x-| 
E|----x-x-x-x-x-------------x-x-|----x-x-x-x-x-------------x-x-| 
 
E|----------------------x-x-13-13--------------------| 
B|----------------------x-x-------15-15--------------| 
G|----13-13-13-13-13-13-x-x-x--x--x--x--12-14-14-----| 
D|----0--0--0--0--0--0--x-x-x--x--x--x--x--0--0------| 
A|----x--x--x--x--x--x------x--x--x--x--x------------| 
E|----x--x--x--x--x--x------x--x--x--x--x------------| 
 
E|----------------------x-x-13-13----------------| 
B|----------------------x-x-------15-15----------| 
G|----13-13-13-13-13-13-x-x-x--x--x--x--12-14-14-| 
D|----0--0--0--0--0--0--x-x-x--x--x--x--x--0--0--| 
A|----x--x--x--x--x--x------x--x--x--x--x--------| 
E|----x--x--x--x--x--x------x--x--x--x--x--------| 
 
E|-----------------------------13-13-----------------| 
B|-----------------------------------15-15-----------| 
G|----13-13-------13-13--------x--x--x--x--12--14-14-| 
D|----x--x--12-12-x--x--12-12--x--x--x--x--x---0--0--| 
A|----x--x--x--x--x--x--x--x---x--x--x--x--x---------| 
E|----x--x--x--x--x--x--x--x---x--x--x--x--x---------| 
 
E|---------------------------13-13---------------| 
B|---------------------------------15-15-----3-3-| 
G|---13-13-------13-13-------x--x--x--x--x-x-2-2-| 
D|---x--x--12-12-x--x--12-12-x--x--x--x--x-x-0-0-| 
A|---x--x--x--x--x--x--x--x--x--x--x--x--x-x-----| 
E|---x--x--x--x--x--x--x--x--x--x--x--x--x-x-----| 
 
Verse 
 
Bass playing tabbed for guitar:
E|-------------------------|--------------------------|------------------------| 
B|-------------------------|--------------------------|------------------------| 
G|-------------------------|--------------------------|------------------------| 
D|---------3^--------------|---------3^---------------|---------3^-------------| 
A|--5--5-5-----5------3--4-|--5--5-5-----5------3--4--|--5--5-5----5------3--4-| 
E|---------------4--5------|---------------4--5-------|--------------4--5------| 
 
E|-------------------------|------3----------------3--|---------3---------3-| 
B|-------------------------|------3----------------3--|---------3---------3-| 
G|-------------------------|------0----------------0--|---------0---------0-| 
D|---------3^--------------|--0---0----------------0--|---------0---------0-| 
A|--5--5-5-----5--------3-4|-------------0----0-------|--1--1-------3--3----| 
E|----------------4---5----|--3-----------------------|---------------------| 
 
E|---------3-----------3---|----------3----------3--|--x-x-x-x-x-x-x-----------| 
B|---------3-----------3---|----------3----------3--|--x-x-x-x-x-x-x-6---------| 
G|---------0-----------0---|----------0----------0--|--x-x-x-x-x-x-x-x-7-7-----| 
D|---------0---3---3-------|--2--2--------1---1-----|--6-6-6-6-6-x-x-x-0-0-5-7-| 
A|--3--3-------------------|------------------------|--x-x-x-x-x-----x-----x-x-| 
E|-------------------------|------------------------|--x-x-x-x-x-----------x-x-| 
 
E|-x-x-x-x-x-x-x----------|-x-x-x-x-x-x-x-----------|--x-x-x-x-x-x-x-----------| 
B|-x-x-x-x-x-x-x-6--------|-x-x-x-x-x-x-x-6---------|--x-x-x-x-x-x-x-6---------| 
G|-x-x-x-x-x-x-x-x-7-7----|-x-x-x-x-x-x-x-x-7-7-----|--x-x-x-x-x-x-x-x-7-7-----| 
D|-6-6-6-6-6-x-x-x-0-0-5-7|-6-6-6-6-6-x-x-x-0-0-5-7-|--6-6-6-6-6-x-x-x-0-0-5-7-| 
A|-x-x-x-x-x-----x-----x-x|-x-x-x-x-x-----x-----x-x-|--x-x-x-x-x-----x-----x-x-| 
E|-x-x-x-x-x-----------x-x|-x-x-x-x-x-----------x-x-|--x-x-x-x-x-----------x-x-| 
 
Verse 
bass tabbed for guitar 
 
E|-------------------------|--------------------------|------------------------| 
B|-------------------------|--------------------------|------------------------| 
G|-------------------------|--------------------------|------------------------| 
D:(12)-------3^------------|---------3^---------------|--------3^--------------| 
A|----5--5-5---------3--4--|--5--5-5-----5-------3-4--|-5--5-5----5--------3-4-| 
E|--------------4-5--------|---------------4--5-------|--------------4--5------| 
 
E|-------------------------|--------------------------|------------------------| 
B|-------------------------|--------------------------|------------------------| 
G|-------------------------|--------------------------|------------------------| 
D|-----------3^------------|---------3^---------------|--------3^--------------| 
A|----5--5-5---------3--4--|--5--5-5-----5-------3-4--|-5--5-5----5--------3-4-| 
E|--------------4-5--------|---------------4--5-------|--------------4--5------| 
 
Chorus:
E|---------3--------3------|---------3--------3--3----|--1-1-1-1-1-1-1-2-| 
B|---------3--------3------|---------3--------3--3----|--3-3-3-3-3-3-3-3-| 
G|---------0--------0------|---------0--------0--0----|--2-2-2-2-2-2-2-2-| 
D|---------0--3--3---------|--2--2--------1-----------|--0-0-0-0-0-0-0-0-| 
A|-------------------------|--------------------------|------------------| 
E|--3--3-------------------|--------------------------|----------------2-| 
 
E|--2--2--2--2--2--2--2----|--3--3--3--3--3--3--3--3--|-3--3--3--3--3--3--3--3-| 
B|--3--3--3--3--3--3--3----|--3--3--3--3--3--3--3--3--|-3--3--3--3--3--3--3--3-| 
G|--2--2--2--2--2--2--2----|--3--3--3--3--3--3--3--3--|-3--3--3--3--3--3--3--3-| 
D|--0--0--0--0--0--0--0----|--------------------------|------------------------| 
A|-------------------------|--------------------------|------------------------| 
E|--2--2--2--2--2--2--2----|--3--3--3--3--3--3--3--3--|-3--3--3--3--3--3--3--3-| 
 
E|--1--1--1--1--1--1--1--2-|--2--2--2--2--2--2--2--2--|-3--3--3--3--3--3--3--3-| 
B|--3--3--3--3--3--3--3--3-|--3--3--3--3--3--3--3--3--|-3--3--3--3--3--3--3--3-| 
G|--2--2--2--2--2--2--2--2-|--2--2--2--2--2--2--2--2--|-3--3--3--3--3--3--3--3-| 
D|--0--0--0--0--0--0--0--0-|--0--0--0--0--0--0--0--0--|------------------------| 
A|-------------------------|--------------------------|------------------------| 
E|-----------------------2-|--2--2--2--2--2--2--2--2--|-3--3--3--3--3--3--3--3-| 
 
E|--3--3--3--3--3--3--3--3-|--1--1--1--1--1--1--1--2--|-2--2--2--2--2--2--2--2-| 
B|--3--3--3--3--3--3--3--3-|--3--3--3--3--3--3--3--3--|-3--3--3--3--3--3--3--3-| 
G|--3--3--3--3--3--3--3--3-|--2--2--2--2--2--2--2--2--|-2--2--2--2--2--2--2--2-| 
D|-------------------------|--0--0--0--0--0--0--0--0--|------------------------| 
A|-------------------------|--------------------------|------------------------| 
E|--3--3--3--3--3--3--3--3-|-----------------------2--|-2--2--2--2--2--2--2--2-| 
 
E|--3--3--3--3--3--3--3--3-|--3--3--3--3--3--3--3--3--|-1--1--1--1--1--1--1--2-| 
B|--3--3--3--3--3--3--3--3-|--3--3--3--3--3--3--3--3--|-3--3--3--3--3--3--3--3-| 
G|--3--3--3--3--3--3--3--3-|--3--3--3--3--3--3--3--3--|-2--2--2--2--2--2--2--2-| 
D|--0--0--0--0--0--0--0--0-|--0--0--0--0--0--0--0--0--|-0--0--0--0--0--0--0--0-| 
A|-------------------------|--------------------------|------------------------| 
E|--3--3--3--3--3--3--3--3-|--3--3--3--3--3--3--3--3--|------------------------| 
 
E|--2--2--2--2--2--2--2--2-|--3--3--3--3--3--3--3--3--|-3--3--3--3--3--3--3--3-| 
B|--3--3--3--3--3--3--3--3-|--3--3--3--3--3--3--3--3--|-3--3--3--3--3--3--3--3-| 
G|--2--2--2--2--2--2--2--2-|--3--3--3--3--3--3--3--3--|-3--3--3--3--3--3--3--3-| 
D|--0--0--0--0--0--0--0--0-|--0--0--0--0--0--0--0--0--|-0--0--0--0--0--0--0--0-| 
A|-------------------------|--------------------------|------------------------| 
E|--2--2--2--2--2--2--2--2-|--3--3--3--3--3--3--3--3--|-3--3--3--3--3--3--3--3-| 
 
Full bend Full bend 
E|-x-x-x-x-x----------x-x-|-x-x-x-x-x----------x-x--|----x-x-x-x-----------x-x-| 
B|-x-x-x-x-x-5^-------x-x-|-x-x-x-x-x-5^-------x-x--|----x-x-x-x-5^--------x-x-| 
G|-x-x-x-x-x-7^-------x-x-|-x-x-x-x-x-7^-------x-x--|----x-x-x-x-7^--------x-x-| 
D|-6-6-6-6-6----------x-x-|-6-6-6-6-6----------x-x--|----6-6-6-6-----------x-x-| 
A|-5-5-5-5-5--------------|-5-5-5-5-5---------------|----5-5-5-5---------------| 
E|-x-x-x-x-x--------------|-x-x-x-x-x---------------|----x-x-x-x---------------| 
 
E|-x-x-x-x-x--x-x------------|-x-x-x-x-x--x-x------------| 
B|-x-x-x-x-x--x-x-6----------|-x-x-x-x-x--x-x-6----------| 
G|-x-x-x-x-x--x-x-x--7-7-----|-x-x-x-x-x--x-x-x--7-7-----| 
D|-6-6-6-6-6--x-x-x--0-0-5-7-|-6-6-6-6-6--x-x-x--0-0-5-7-| 
A|-5-5-5-5-5------x------x-x-|-5-5-5-5-5------x------x-x-| 
E|-x-x-x-x-x-------------x-x-|-x-x-x-x-x-------------x-x-| 
 
E|-x-x-x-x-x--x-x------------| 
B|-x-x-x-x-x--x-x-6----------| 
G|-x-x-x-x-x--x-x-x--7-7-----| 
D|-6-6-6-6-6--x-x-x--0-0-5-7-| 
A|-5-5-5-5-5------x------x-x-| 
E|-x-x-x-x-x-------------x-x-| 
 
E|-----------------------------13-13-----------------| 
B|-----------------------------------15-15-----------| 
G|----13-13-------13-13--------x--x--x--x--12--14-14-| 
D|----x--x--12-12-x--x--12-12--x--x--x--x--x---0--0--| 
A|----x--x--x--x--x--x--x--x---x--x--x--x--x---------| 
E|----x--x--x--x--x--x--x--x---x--x--x--x--x---------| 
 
E|---------------------------13-13---------------| 
B|---------------------------------15-15-----3-3-| 
G|---13-13-------13-13-------x--x--x--x--x-x-2-2-| 
D|---x--x--12-12-x--x--12-12-x--x--x--x--x-x-0-0-| 
A|---x--x--x--x--x--x--x--x--x--x--x--x--x-x-----| 
E|---x--x--x--x--x--x--x--x--x--x--x--x--x-x-----| 
 
Verse 
Bass tabbed for guitar 
E|-------------------------|-------------------------|-------------------------| 
B|-------------------------|-------------------------|-------------------------| 
G|-------------------------|-------------------------|-------------------------| 
D|-----------3^------------|---------3^--------------|---------3^--------------| 
A|----5--5-5---------3--4--|--5--5-5-----5-------3-4-|--5--5-5----5--------3-4-| 
E|--------------4-5--------|---------------4--5------|---------------4--5------| 
 
E|-------------------------|------3-3-----------3-3---|--------3-----------3-| 
B|-------------------------|------3-3-----------3-3---|--------3-----------3-| 
G|-------------------------|------0-0-----------0-0---|--------0-----------0-| 
D|-----------3^------------|--0---0-0-----------0-0---|--------0-----------0-| 
A|----5--5--5--------3--4--|------------0---0---------|--1--1-------3--3-----| 
E|--------------4-5--------|--3-----------------------|----------------------| 
 
E|----------3----------3---|--------3-----------3-----|------------------------| 
B|----------3----------3---|--------3-----------3-----|--3-3-3-----------------| 
G|----------0----------0---|--------0-----------0-----|--2-2-2-----------------| 
D|----------0---3--3-------|--2--2-------1--1---------|--0-0-0-3--0------------| 
A|-------------------------|--------------------------|-------------------3--4-| 
E|----3--3-----------------|--------------------------|--------------4--5------| 
 
E|-------------------------|--------------------------| 
B|----3-3-3----------------|----3-3-3-----------------| 
G|----2-2-2----------------|----2-2-2-----------------| 
D|----0-0-0-3--0-----------|----0-0-0-3--0------------| 
A|--------------------3--4-|--------------------3---4-| 
E|---------------4--5------|---------------4--5-------| 
 
E|-----------------------------------| 
B|-3-3-3-3-x-x-------x-x-------------| 
G|-2-2-2-2-x-x-------x-x-------------| 
D|-0-0-0-0-x-x-10/12-x-x-10/12-12-12-| 
A|-----------------------------------| 
E|-----------------------------------| 
 
E|--3--3--3--3--3--3--3--3-|---| 
B|--3--3--3--3--3--3--3--3-|-3-| 
G|--3--3--3--3--3--3--3--3-|-2-| 
D|-------------------------|-0-| 
A|-------------------------|---| 
E|--3--3--3--3--3--3--3--3-|---| 
 
E|----------------0--------|--------------------0-----|------------------------| 
B|---------3---------------|--------------3-----------|----------------------3-| 
G|---2--------2-------2----|--2--2--2--2-----2------2-|-2--2--2--2--2--2--2----| 
D|------0-------------0----|--0--0--0--0------------0-|-0--0--0--0--0--0--0----| 
A|-------------------------|--------------------------|------------------------| 
E|-------------------------|--------------------------|------------------------| 
 
E|-------------------------|--------------------------|------------------------| 
B|--------3-----3-------1--|--------------------------|-3----3-----3------3----| 
G|--2--2-----2------2------|--2--2--2--2--2--2--2--2--|---2-----2-----2------2-| 
D|--0--0-------------------|--0--0--0--0--0--0--0--0--|------------------------| 
A|-------------------------|--------------------------|------------------------| 
E|-------------------------|--------------------------|------------------------| 
 
Piano tabbed for guitar 
 
E|-----------------5--|---5------5-----5--|-5-------5-----5---|-5------5---5---| 
B|--10-----10------8--|---5------5-----5--|-6-------6-----6---|-6------5---5---| 
G|--7------7-------7--|---7---7----7----7-|-7--7----7-----7---|-7----7---7---7-| 
D|--0---0------0------|-------------------|-0----0-----0------|----0-----------| 
A|--------------------|-------------------|-------------------|----------------| 
E|--------------------|-------------------|-------------------|----------------| 
 
E|--5-------5-----------|--5-----------------|----------|------------5---------| 
B|--7-------7-----------|--5---------------6-|----------|---------------6------| 
G|--7--7----7----7------|-----7--6---5-----4-|----------|------4-----------4---| 
D|--0----0-----0-----0--|--0-------0----0--0-|----------|---0-----0----------0-| 
A|----------------------|--------------------|----------|----------------------| 
E|----------------------|--------------------|----------|----------------------| 
 
E|-----------------5--|---5------5-----5--|-5-------5-----5---|-5------5---5---| 
B|--10-----10------8--|---5------5-----5--|-6-------6-----6---|-6------5---5---| 
G|--7------7-------7--|---7---7----7----7-|-7--7----7-----7---|-7----7---7---7-| 
D|--0---0------0------|-------------------|-0----0-----0------|----0-----------| 
A|--------------------|-------------------|-------------------|----------------| 
E|--------------------|-------------------|-------------------|----------------| 
 
E|--5-------5-----------|--5-----------------|----------|------------5---------| 
B|--7-------7-----------|--5---------------6-|----------|---------------6------| 
G|--7--7----7----7------|-----7--6---5-----4-|----------|------4-----------4---| 
D|--0----0-----0-----0--|--0-------0----0--0-|----------|---0-----0----------0-| 
A|----------------------|--------------------|----------|----------------------| 
E|----------------------|--------------------|----------|----------------------| 
 
E|--10--10-----------|-------------------|-------------------|-----------------| 
B|--10--10--------8--|---7---------------|-------------------|-----------------| 
G|--7---7----7----7--|---7-------9-7--9-7|-9^------9^-----9^-|-9^--9^--7-------| 
D|--0---0----0-------|-0---0--0--0---0---|-0----0--0------0--|-0---0---0--0--0-| 
A|-------------------|-0---0--0----------|-------------------|------------0--0-| 
E|-------------------|-------------------|-------------------|-----------------| 
 
E|---------------------|-----------------------------|-------------------------| 
B|--7--7--7--7---7--7--|----------------------------6|-------------------------| 
G|--7--7--7--7---7--7--|-7-----6-----5--------------4|-----------------------0-| 
D|--0--0--0--0---0--0--|-x--x--x--x--x--x--x--x--x--0|-----------------------0-| 
A|--0--0--0--0---0--0--|-x--x--x--x--x--x--x--x--x---|-------------------------| 
E|---------------------|-x--x--x--x--x--x--x--x--x---|---15/3--------3---------| 
 
E|----1--1-----1----------|-10--10-----10---------------|----------------------| 
B|----0--0-----0----------|-10--10-----10---------8-----|---7--7---------------| 
G|-0--0--0-----0--0--0--0-|-7---7------7----------7-----|---7--7-----9/7--9/21-| 
D|-0--0--0--0--0--0--0--0-|-0---0------0------0---------|---0--0--0--0---------| 
A|------------------------|-----------------------------|----------------------| 
E|----------3--3--3--3--3-|--------7---7----------------|----------------------| 
 
E|------------------------|-----------------------------|----------------------| 
B|------------------------|-----------------------------|--7---7--7--7----7--7-| 
G|---21^--21^---21^---21^-|--21^---21^---19-------------|--7---7--7--7----7--7-| 
D|------------------------|-----------------19---0------|--0---0--0--0----0--0-| 
A|------------------------|----------------------0------|--0---0--0--0----0--0-| 
E|------------------------|-----------------------------|----------------------| 
 
E|---------------------|--------------------|----1-1---1------------|---| 
B|-------------------6-|--------------------|----0-0---0------------|-3-| 
G|-7-----6-----5-----4-|-----------------0--|--0-0-0---0-0--0--0----|-2-| 
D|-x-x-x-x-x-x-x-x-x-0-|-----------------0--|--0-0-0-0-0-0--0--0----|-0-| 
A|-x-x-x-x-x-x-x-x-x---|--------------------|-----------------------|---| 
E|-x-x-x-x-x-x-x-x-x---|----15/3-----3------|--------3-3-3--3--3----|---|
 
 

Видео