Muse - Dead Star, аккорды

Прокрутка
Тональность
Шрифт
100
 Intro: 
 
e------------------------------------------------------------
B------------------------------------------------------------
G------------------------------------------------------------
D------------------------------------------------------------
A------------------------------------------------------------
D--12-0-0-12-0-0-12-0-0-----------------12-0-0-12-0-0-12-0-0-
PM ..................... PM ..................... 
 
e-------------------------------------------------------------------- 
B-------------------------------------------------------------------- 
G-------------------------------------------------------------------- 
D-------------------------------------------------------------------- 
A-12-0-0-12-0-0-12-0-3-5-6-6-10-11--12-0-0-12-0-0-12-0-3-5-6-6-10-11- 
D-12-0-0-12-0-0-12-0-3-5-6-6-10-11--12-0-0-12-0-0-12-0-3-5-6-6-10-11- 
 
e------------------------
B------------------------
G------------------------
D------------------------
A-12-0-0-12-0-0-12-0-3-5-
D-12-0-0-12-0-0-12-0-3-5-
 
e------------------------
B------------------------
G------------------------
D------------------------
A-12-0-0-12-0-0-12-0-3-5-
D-12-0-0-12-0-0-12-0-3-5-
 
Verse: 
e------------------------------------------------- 
B--5-5-5-5-5-5-5-5-5-5-------5-5-5-5-5-5-5-5-5-5-- 
G--7-7-7-7-7-7-7-7-7-7-------7-7-7-7-7-7-7-7-7-7-- 
D--7-7-7-7-7-7-7-7-7-7-------7-7-7-7-7-7-7-7-7-7-- 
A--5-5-5-5-5-5-5-5-5-5-------5-5-5-5-5-5-5-5-5-5-- 
D------------------------------------------------- 
1.Shame on yo____________u, 
2.We all are to bla________me, 
3.Wasting ???????? without yo_____u, 
4.Love is coming your wa_____y, 
e------------------------------------------------------------------- 
B------------4-4-4-4-----------4-4----4-4---3-3-3-3----------------- 
G------------6-6-6-6-----------6-6----6-6---5-5-5-5---3-2-3-4-4-5-6- 
D------------6-6-6-6-----------6-6----6-6---5-5-5-5---3-2-3-4-4-5-6- 
A------------4-4-4-4-----------4-4----4-4---3-3-3-3---1-0-1-2-2-3-4- 
D------------------------------------------------------------------- 
1.For thinkin that youre an excepti_______________on, 
2. Crashing down to ear________________th, 
3. Fading like a Dead Sta___r Woah Oooh, 
 
e------------------------------------------------------------------------ 
B--2-2-2-2-2-2-2-2-2-2-2-2-2-2-2-2-------3-3-3-3-3-3-3-3-3-3-3-3-3-3-3-3- 
G--4-4-4-4-4-4-4-4-4-4-4-4-4-4-4-4-------5-5-5-5-5-5-5-5-5-5-5-5-5-5-5-5- 
D--4-4-4-4-4-4-4-4-4-4-4-4-4-4-4-4-------5-5-5-5-5-5-5-5-5-5-5-5-5-5-5-5- 
A--2-2-2-2-2-2-2-2-2-2-2-2-2-2-2-2-------3-3-3-3-3-3-3-3-3-3-3-3-3-3-3-3- 
D------------------------------------------------------------------------ 
4. Love is coming your wa______y, 
 
Chorus: 
e--------------------------------------------------------------- 
B--8--8--8--8-----8--8--8-----8--8--8--5-5-5-5----5-5-5---5-5-5- 
G-10-10-10-10----10-10-10----10-10-10--5-5-5-5----5-5-5---5-5-5- 
D-10-10-10-10----10-10-10----10-10-10--5-5-5-5----5-5-5---5-5-5- 
A--8--8--8--8-----8--8--8-----8--8--8--3-3-3-3----3-3-3---3-3-3- 
D--------------------------------------------------------------- 
You used to be everything to me, 
 
e------------------------------------------------------------------- 
B-9-9-9-9----9-9-9---9-9-9-------8--8--8--8-----8--8--8-----8--8--8- 
G-9-9-9-9----9-9-9---9-9-9------10-10-10-10----10-10-10----10-10-10- 
D-9-9-9-9----9-9-9---9-9-9------10-10-10-10----10-10-10----10-10-10- 
A-7-7-7-7----7-7-7---7-7-7-------8--8--8--8-----8--8--8-----8--8--8- 
D------------------------------------------------------------------- 
Now youre tired and frighte________________________ned, 
 
e--------------------------------------------------------------- 
B--8--8--8--8-----8--8--8-----8--8--8--5-5-5-5----5-5-5---5-5-5- 
G-10-10-10-10----10-10-10----10-10-10--5-5-5-5----5-5-5---5-5-5- 
D-10-10-10-10----10-10-10----10-10-10--5-5-5-5----5-5-5---5-5-5- 
A--8--8--8--8-----8--8--8-----8--8--8--3-3-3-3----3-3-3---3-3-3- 
D--------------------------------------------------------------- 
Tired and frighte_______________ned, 
 
e---------------------------------- 
B---------------------------------- 
G---------------------------------- 
D---------------------------------- 
A-12-0-0-12-0-0-12-0-3-5-6-6-10-11- 
D-12-0-0-12-0-0-12-0-3-5-6-6-10-11- 
By yourse____________________lf, 
 
e---------------------------------- 
B---------------------------------- 
G---------------------------------- 
D---------------------------------- 
A-12-0-0-12-0-0-12-0-3-5-6-6-10-11- 
D-12-0-0-12-0-0-12-0-3-5-6-6-10-11- 
By yourse____________________lf, 
 
e-------------------------
B-------------------------
G-------------------------
D-------------------------
A-12-0-0-12-0-0-12-0------ 
D-12-0-0-12-0-0-12-0------
yourse_____________________lf, 
 
e-------------------------
B-------------------------
G-------------------------
D-------------------------
A-12-0-0-12-0-0-12-0------ 
D-12-0-0-12-0-0-12-0------
yourse_____________________lf, 
 
Verse: 
e------------------------------------------------- 
B--5-5-5-5-5-5-5-5-5-5-------5-5-5-5-5-5-5-5-5-5-- 
G--7-7-7-7-7-7-7-7-7-7-------7-7-7-7-7-7-7-7-7-7-- 
D--7-7-7-7-7-7-7-7-7-7-------7-7-7-7-7-7-7-7-7-7-- 
A--5-5-5-5-5-5-5-5-5-5-------5-5-5-5-5-5-5-5-5-5-- 
D------------------------------------------------- 
1.Shame on yo____________u, 
2.If you want I,ll make you wish you were, 
3.Why cant you sle_____ep with, 
4.Love is coming your wa_____y, 
e------------------------------------------------------------------- 
B------------4-4-4-4-----------4-4----4-4---3-3-3-3----------------- 
G------------6-6-6-6-----------6-6----6-6---5-5-5-5---3-2-3-4-4-5-6- 
D------------6-6-6-6-----------6-6----6-6---5-5-5-5---3-2-3-4-4-5-6- 
A------------4-4-4-4-----------4-4----4-4---3-3-3-3---1-0-1-2-2-3-4- 
D------------------------------------------------------------------- 
1.For thinkin that we are a___________ll alone, 
2.Failing to impre_______________ss, 
3. Someone who'll protect you Yeah, 
 
e------------------------------------------------------------------------ 
B--2-2-2-2-2-2-2-2-2-2-2-2-2-2-2-2-------3-3-3-3-3-3-3-3-3-3-3-3-3-3-3-3- 
G--4-4-4-4-4-4-4-4-4-4-4-4-4-4-4-4-------5-5-5-5-5-5-5-5-5-5-5-5-5-5-5-5- 
D--4-4-4-4-4-4-4-4-4-4-4-4-4-4-4-4-------5-5-5-5-5-5-5-5-5-5-5-5-5-5-5-5- 
A--2-2-2-2-2-2-2-2-2-2-2-2-2-2-2-2-------3-3-3-3-3-3-3-3-3-3-3-3-3-3-3-3- 
D------------------------------------------------------------------------ 
4. Love is coming your wa______y, 

Repeat Chorus 
 
Solo : This is played with a whammy pedal and I dont have one 
so if someone tabs it properly email me. 
I will give credit where it is due. 
 
Outro:
e-------------------------------------------------------------------- 
B-------------------------------------------------------------------- 
G-------------------------------------------------------------------- 
D-------------------------------------------------------------------- 
A-------------------------------------------------------------------- 
D-12-0-0-12-0-0-12-0-3-5-6-6-10-11--12-0-0-12-0-0-12-0-3-5-6-6-10-11- 
 
e---------------------------------- 
B---------------------------------- 
G---------------------------------- 
D---------------------------------- 
A-12-0-0-12-0-0-12-0-3-5-6-6-10-11- 
D-12-0-0-12-0-0-12-0-3-5-6-6-10-11- 
 
e---------------------------------- 
B---------------------------------- 
G---------------------------------- 
D---------------------------------- 
A-12-0-0-12-0-0-12-0-3-5-6-6-10-11- 
D-12-0-0-12-0-0-12-0-3-5-6-6-10-11- 
 
e--------------------
B--------------------
G--------------------
D--------------------
A-12-0-0-12-0-0-12-0-
D-12-0-0-12-0-0-12-0-
 
e------------------------
B------------------------
G------------------------
D------------------------
A-12-0-0-12-0-0-12-0----- 
D-12-0-0-12-0-0-12-0-----
By yourse_____________________lf, 
e----------------------
B----------------------
G----------------------
D----------------------
A-12-0-0-12-0-0-12-0---
D-12-0-0-12-0-0-12-0---
By yourse_____________________lf, 
e-----------------------
B-----------------------
G-----------------------
D-----------------------
A-12-0-0-12-0-0-12-0----
D-12-0-0-12-0-0-12-0----
By,
 
 

Видео