Muse - Darkshines, аккорды

Прокрутка
Тональность
Шрифт
100
 INTRO 
Gtr.1(elec.) Dm 
E||---------------------||-----------------------|---------------------| 
B||---------------------||-----------------------|---------------------| 
G||---------------------||-----------------------|---------------------| 
D||---------------------||-----------------------|----------/7---5---3-| 
A||----------------5-7--||--8------7--5----------|--------4------------| 
E||---------------------||-----------------------|---------------------| 
 
E|---------------------------|--------------------------|-----------------| 
B|---------------------------|--------------------------|-----------------| 
G|---------------------------|--------------------------|-------------6br-| 
D|--2h3p2-------2------------|---------------7---5---7--|--7br--7--5------| 
A|-----------4-----4--1h4p1p0h1p0-----------------------|-----------------| 
E|---------------------------|-----------2/5------------|-----------------| 
 
w/bar 
~~~~~~~~~~~~~~~~ 
E|------------------------|-----| 
B|------------------------|--14-| 
G|---------7h9-10---9---7////12-| 
D|------------------------|-----| 
A|------------------------|-----| 
E|------------------------|-----| 
 
VERSE 
Dsus4 Dm A7 
E||--------3----------1h3p1--------0--------|---------| 
B||о----3----------------|------------------|-------2-| 
G||--2-------------------|------------------|----0----| 
D||----------------------|------------------|---------| 
A||о---------------------|------------------|---------| 
E||----------------------|------------------|---------| 
let ring 
2nd ad lib. 
 
Gm Ddim 
E|----------------|-------------------------|-----1-| 
B|----------------|--3----------------------|--0----| 
G|----------------|--------3-------------1--|-------| 
D|----------------|-----0-------------0-----|-------| 
A|----------------|-------------------------|-------| 
E|----------------|-------------------------|-------| 
 
A7 Dsus4 
E|-----------------|----------------|--------3-| 
B|-----------------|----------------|-----3----| 
G|------0----------|----------------|--2-------| 
D|-----------------|----------------|----------| 
A|------0----------|----------------|----------| 
E|-----------------|----------------|----------| 
 
Dm A7 
E|--1----------------|--0-------| 
B|--3----------------|--------2-| 
G|--2----------------|-----0----| 
D|-------------------|----------| 
A|-------------------|----------| 
E|-------------------|----------| 
 
Gm Ddim A7 
E|---------------------|--1----------------|----------------|------------------| 
B|--3------------------|--0----------------|--2-------------|------------------| 
G|--------3------------|--1----------------|--0-------------|------------------| 
D|-----0---------------|--0----------------|--2-------------|------------------| 
A|---------------------|-------------------|--0-------------|------------12⁄⁄⁄-| 
E|---------------------|-------------------|----------------|------------------| 
w/heavy dist. 

CHORUS 
Dm A7 
E||----------------------|-----------------------|----------------------| 
B||--6--6----6-----------|--6--6----6------------|----------------------| 
G||--7--7----7-----------|--7--7----7------------|--6-------------------| 
D||--7--7----7-------6b--|--7--7----7--------6b--|--7----------------6b-| 
A||--5--5----5-----------|--5--5----5------------|--7----------12/------| 
E||-------------10⁄------|-------------10⁄-------|--5--5----5-----------| 
3rd($)Vосаl Tacet 
 
A7 Gm Bb 
E|-----------------------|----------------------|--6-----------------| 
B|-----------------------|--3-------------------|--6---------------9-| 
G|--6--------------------|--3-------------------|--7---------------7-| 
D|--7----------------6b--|--0---------------7b--|--8---------------8-| 
A|--7----------12/-------|----------------------|--8---------------8-| 
E|--5--5----5------------|--3--3----3--3--------|--6--6----6--6------| 
 
A7* [1.-------------------- 
E|-------------.----.----|-------------.----.----|| 
B|--8--8----8--8----8----|--8--8----8--8----8----|| 
G|--6--6----6--6----6----|--6--6----6--6----6----|| 
D|--7--7----7--7----7----|--7--7----7--7----7----|| 
A|--7--7----7--7----7----|--7--7----7--7----7----|| 
E|-----------------------|-----------------------|| 
 
SOLO 
------------------------------------------------------------------- 
Dsus4 Dm A7 
E||--------------------|----------------------|-----------------| 
B||--10----------------|----------10---8---6--|--5------6p5---5-| 
G||--------------------|--------x-------------|-------------7---| 
D||--------------------|------x---------------|-----------------| 
A||--------------------|----------------------|-----------------| 
E||--------------------|----------------------|-----------------| 
w/Rоlаnd VG8 trumpet fx 
 
------------------------------------------------------------------- 
Gm Bb 
E|----------------------|----------------------|--------------------| 
B|----------10---8---6--|--5------6p5-3--------|------3-5-6---5---3-| 
G|--------x-------------|----------------------|--------------------| 
D|------x---------------|----------------------|--------------------| 
A|----------------------|----------------------|--------------------| 
E|----------------------|----------------------|--------------------| 
 
------------------------------------][2.$.------------------- 
Asus4 A 
E|-------------------|----------------||-------------.----.-| 
B|--2----------------|---------------о||--8--8----8--8----8-| 
G|-------------------|----------------||--6--6----6--6----6-| 
D|-------------------|----------------||--7--7----7--7----7-| 
A|-------------------|---------------о||--7--7----7--7----7-| 
E|-------------------|----------------||--------------------| 
>>>>>>>>>>>>>>>> 
 
CHORUS 
Dm A7 
E||----------------------|-----------------------|----------------------| 
B||--6--6----6-----------|--6--6----6------------|----------------------| 
G||--7--7----7-----------|--7--7----7------------|--6-------------------| 
D||--7--7----7-------6b--|--7--7----7--------6b--|--7----------------6b-| 
A||--5--5----5-----------|--5--5----5------------|--7----------12/------| 
E||-------------10⁄------|-------------10⁄-------|--5--5----5-----------| 
 
A7 Gm Bb 
E|-----------------------|----------------------|--6-----------------| 
B|-----------------------|--3-------------------|--6---------------9-| 
G|--6--------------------|--3-------------------|--7---------------7-| 
D|--7----------------6b--|--0---------------7b--|--8---------------8-| 
A|--7----------12/-------|----------------------|--8---------------8-| 
E|--5--5----5------------|--3--3----3--3--------|--6--6----6--6------| 
 
A7 То Соdа@ 
E|-------------.----.----|-------------.----.-| 
B|--8--8----8--8----8----|--8--8----8--8----8-| 
G|--6--6----6--6----6----|--6--6----6--6----6-| 
D|--7--7----7--7----7----|--7--7----7--7----7-| 
A|--7--7----7--7----7----|--7--7----7--7----7-| 
E|-----------------------|--------------------| 
 
SOLO 
Gm Dm 
E||------------------|-----------------------|--------------| 
B||----11------------|----------11---10---8--|--6-----------| 
G||---x--------------|--------x--------------|---------7----| 
D||--x---------------|------x----------------|------------7-| 
A||------------------|-----------------------|--------------| 
E||------------------|-----------------------|--------------| 
w/Rоlаnd VG8 trumpet fx 
 
Gm 
E|--------------------|------------------|----------------------| 
B|--------------------|----11------------|----------11---10---8-| 
G|--------------------|---x--------------|--------x-------------| 
D|--------7---6---7---|--x---------------|------x---------------| 
A|--------------------|------------------|----------------------| 
E|--------------------|------------------|----------------------| 
 
Dm Gm 
E|---------------------|--------------------|------------------|-------| 
B|--6------------------|--------------------|----13------------|----14-| 
G|---------7-----------|--------------------|---x--------------|---x---| 
D|------------7--------|--------7---6---7---|--x---------------|--x----| 
A|---------------------|--------------------|------------------|-------| 
E|---------------------|--------------------|------------------|-------| 
 
Dm Ddim 
E|----------------------------|-----------------|-------------| 
B|----15------13p11-10--------|-----------------|-------------| 
G|---x------------------------|-----------------|-----------4-| 
D|--x-------------------------|-----------------|--6----------| 
A|----------------------------|-----------------|-------------| 
E|----------------------------|-----------------|-------------| 
 
A7 
E|---------------------|--------------------|----| 
B|---------------------|--10----------------|----| 
G|--7--------10--------|--------------------|--9-| 
D|---------------------|--------------------|----| 
A|---------------------|--------------------|----| 
E|---------------------|--------------------|----| 
<<<<<<<<<<<<<<<<<<< 
w/clean тоnе 
 
Gm Dm 
E|---------------------|---------------------|----------------| 
B|--------5------------|---------------------|----------------| 
G|-----7---------------|-----------9br----7--|--9br----7------| 
D|--8------------------|----------x----------|--------------7-| 
A|---------------------|---------x-----------|----------------| 
E|---------------------|--------x------------|----------------| 
 
Gm 
E|-----------------------|--------------------|--------------------| 
B|-----------------------|--------------------|--------------------| 
G|-----------------------|--9-----------------|-----------9br----7-| 
D|----------x7---6---7---|--------------------|----------x---------| 
A|---------x-------------|--------------------|---------x----------| 
E|--------x--------------|--------------------|--------x-----------| 
 
Dm Gm 
E|---------------------|-----------------------|--------------------------| 
B|---------------------|-----------------------|--------------------------| 
G|--9br----7-----------|-----------------------|--------------------------| 
D|------------7--------|---------------7---8---|--11h12-------------12h14-| 
A|---------------------|------7h8-10-----------|--------------------------| 
E|---------------------|-----------------------|--------------------------| 
 
Dm 
E|---------------------------|--------------------------------------------| 
B|---------------------------|--14h15p14-11-14-11p10----10h11-14h15p14-11-| 
G|-------13--------13---14---|--------------------------------------------| 
D|--15--------15-------------|--------------------------------------------| 
A|---------------------------|--------------------------------------------| 
E|---------------------------|--------------------------------------------| 
 
Gm Ddim 
E|---------------------------|---------------------|-------------------| 
B|--14-11p10----10--10⁄⁄8⁄⁄6⁄⁄5⁄⁄3--------------3--|--3h5h6p5----------| 
G|---------------------------|---------------------|-----------------7-| 
D|---------------------------|---------------------|-------------------| 
A|---------------------------|---------------------|-------------------| 
E|---------------------------|---------------------|-------------------| 
 
D.$.al Соdа 
take 2nd ending 
A7 
E|----| 
B|----| 
G|--7-| 
D|----| 
A|----| 
E|----| 
w/feedback+whammy fx <<<<<<<<<<<<<<<<<<<<<<<<<<<<< 
 
@Соdа 
A7 
E||-------------.--------|-------------.---------| 
B||--8--8----8--8--------|--8--8----8--8----8--8-| 
G||--6--6----6--6--------|--6--6----6--6----6--6-| 
D||--7--7----7--7--------|--7--7----7--7----7--7-| 
A||--7--7----7--7--------|--7--7----7--7----7--7-| 
E||----------------------|-----------------------| 
 
Dm 
E|-----.---------------|----| 
B|--8--8----8--8----8--|--3-| 
G|--6--6----6--6----6--|--2-| 
D|--7--7----7--7----7--|--0-| 
A|--7--7----7--7----7--|----| 
E|---------------------|----|
 
 

Видео