Muse - Thoughts Of A Dying Atheist, аккорды

Прокрутка
Тональность
Шрифт
100
Intro:
|-----0------0-----0-----0-----0----| 
|-------1------1-----1-----1-----1--| 
|-1s2-----2------2-----2-----2-----2| x2 
|-----------------------------------| 
|-----------------------------------| 
|-----------------------------------| 
 
Verse part1: 
|---0-----0-----0-----0-----0-------0-----0-----0-----0-----0--------| 
|-----1-----1-----1-----1-----1-------1-----1-----1-----1-----1------| 
|-------2----2------2-----2-----2-------0-----0-----0-----0-----0----| 
|-2-------------------------------2----------------------------------| 
|--------------------------------------------------------------------| 
|--------------------------------------------------------------------| 
 
|---1-----1-----1-----1-----1-------0-----0---------0-----0----------| 
|-----1-----1-----1-----1-----1-------0-----0---0-----0-----0--------| 
|-------2-----2-----2-----2-----2-------2-----2---------1-----1s2----| 
|-3-------------------------------2---------------2------------------| 
|--------------------------------------------------------------------| 
|--------------------------------------------------------------------| 
 
|---------0---------------1---------------1-----1--------------------| 
|-----1-----1---1-----3-----3---3-----0-----0----0------------------| 
|---2---2-----2-----2---2-----2-----0---0-----0-----0----------------| 
|-2---------------3---------------0----------------------------------| 
|--------------------------------------------------------------------| 
|--------------------------------------------------------------------| 
 
|--------------------------------------------------------------------| 
|---1-----1---------1-----1----------1-----1-----1-----1-----1-------| 
|----0-----0---0------0-----0----0-----0-----0-----0-----0-----0----| 
|-2-----2-----2---3-----3-----3----2-----2-----2-----2-----2-----2---| 
|--------------------------------------------------------------------| 
|--------------------------------------------------------------------| 
 
Verse part2: 
|-----0-------0------0-------0-------0-------0-------0-------0-------| 
|-------1-------1------1-------1-------1-------1-------1-------------| 
|---2-------2------2-------2-------0-------0-------0-------0---0-----| 
|-2-------2------2-------2-------2-------2-------2-------2-----------| 
|--------------------------------------------------------------------| 
|--------------------------------------------------------------------| 
 
|-----1-------1-------1-------1-------0-------0-------0-------0------| 
|-------1-------1-------1--------------0-------0-------0-------0----| 
|---2-------2-------2-------2---2---2-------2-------2-------2--------| 
|-3-------3-------3-------3-------2-------2-------2-------2----------| 
|--------------------------------------------------------------------| 
|--------------------------------------------------------------------| 
 
|-----0-------0-------1-------1-------1-------1-------1-------1------| 
|-------1-------1-------3-------3-------0-------0-------0-------0----| 
|---2-------2-------2-------2-------0-------0-------0-------0--------| 
|-2-------2-------3-------3-------0-------0-------0-------0----------| 
|--------------------------------------------------------------------| 
|--------------------------------------------------------------------| 
 
Chorus:
|-0-0-0-0-0-0-0-0-0-0-0-0-0-0-0-0-0-0-0-0-0-0-0-0-1-1-1-1-1-1-1-1----| 
|-1-1-1-1-1-1-1-1-1-1-1-1-1-1-1-1-1-1-1-1-1-1-1-1-3-3-3-3-3-3-3-3----| 
|-0-0-0-0-0-0-0-0-0-0-0-0-0-0-0-0-0-0-0-0-0-0-0-0-2-2-2-2-2-2-2-2----| 
|-3-3-3-3-3-3-3-3-2-2-2-2-2-2-2-2-2-2-2-2-2-2-2-2-0-0-0-0-0-0-0-0----| 
|--------------------------------------------------------------------| 
|--------------------------------------------------------------------| 
 
|-1-1-1-1-1-1-1-1-1-1-1-1-1-1-1-1-1-1-1-1-1-1-1-1-0-0-0-0-0-0-0-0----| 
|-1-1-1-1-1-1-1-1-0-0-0-0-0-0-0-0-0-0-0-0-0-0-0-0-1-1-1-1-1-1-1-1----| 
|-2-2-2-2-2-2-2-2-0-0-0-0-0-0-0-0-0-0-0-0-0-0-0-0-0-0-0-0-0-0-0-0----| 
|-0-0-0-0-0-0-0-0-0-0-0-0-0-0-0-0-0-0-0-0-0-0-0-0-2-2-2-2-2-2-2-2----| 
|--------------------------------------------------------------------| 
|--------------------------------------------------------------------| 
 
|-0-0-0-0-0-0-0-0-0-0-0-0-0-0-0-0-0-0-0-0-0-0-0-0-1-1-1-1-1-1-1-1----| 
|-0-0-0-0-0-0-0-0-1-1-1-1-1-1-1-1-2-2-2-2-2-2-2-2-3-3-3-3-3-3-3-3----| 
|-0-0-0-0-0-0-0-0-0-0-0-0-0-0-0-0-0-0-0-0-0-0-0-0-2-2-2-2-2-2-2-2----| 
|-2-2-2-2-2-2-2-2-2-2-2-2-2-2-2-2-2-2-2-2-2-2-2-2-0-0-0-0-0-0-0-0----| 
|--------------------------------------------------------------------| 
|--------------------------------------------------------------------| 
 
|-1-1-1-1-1-1-1-1-1-1-1-1-1-1-1-1-1-1-1-1-1-1-1-1-0-0-0-0-0-0-0-0----| 
|-1-1-1-1-1-1-1-1-0-0-0-0-0-0-0-0-0-0-0-0-0-0-0-0-1-1-1-1-1-1-1-1----| 
|-2-2-2-2-2-2-2-2-0-0-0-0-0-0-0-0-0-0-0-0-0-0-0-0-0-0-0-0-0-0-0-0----| 
|-0-0-0-0-0-0-0-0-0-0-0-0-0-0-0-0-0-0-0-0-0-0-0-0-2-2-2-2-2-2-2-2----| 
|--------------------------------------------------------------------| 
|--------------------------------------------------------------------| 
 
|-0-0-0-0-0-0-0-0-1-1-1-1-1-1-1-1-1-1-1-1-1-1-1-1-1-0-0-0-0-0-0-0-0-----| 
|-1-1-1-1-1-1-1-1-1-1-1-1-1-1-1-1-1-1-1-1-1-1-1-1-1-1-1-1-1-1-1-1-1-----| 
|-3-3-3-3-3-3-3-3-2-2-2-2-2-2-2-2-1-1-1-1-1-1-1-1-1-0-0-0-0-0-0-0-0-----| 
|-2-2-2-2-2-2-2-2-3-3-3-3-3-3-3-3-3-3-3-3-3-3-3-3-3-2-2-2-2-2-2-2-2-----| 
|--------------------------------------------------------------------| 
|--------------------------------------------------------------------| 
 
|-1-1-1-1-1-1-1-1-1-1-1-1-1-1-1-1-0-0-0-0-0-0-0-0-0-0-0-0-0-0-0-0----| 
|-0-0-0-0-0-0-0-0-1-1-1-1-1-1-1-1-1-1-1-1-1-1-1-1-1-1-1-1-1-1-1-1----| 
|-0-0-0-0-0-0-0-0-2-2-2-2-1-1-1-1-0-0-0-0-0-0-0-0-0-0-0-0-0-0-0-0----| 
|-2-2-2-2-2-2-2-2-3-3-3-3-3-3-3-3-2-2-2-2-2-2-2-2-2-2-2-2-2-2-2-2----| 
|--------------------------------------------------------------------| 
|--------------------------------------------------------------------| 
 
Verse part2 repeated 
Chorus repeated 
 
Bridge:with flange 
|-x--x--0----------------------------------0-----0--0--0--0--0--0------| 
|-x--x--1----1--1--1--x-1wv----1--1--1--x--1-----1--1--1--0--0--0--3s5-| 
|-x--x--2----2--2--2--x-2wv----2--2--2--x--2-----2--2--2--0--0--0------| 
|------------2--2--2--x-1wv----2--2--2--x--2-----2--2--2---------------| 
|--------------------------------------------------------------------| 
|--------------------------------------------------------------------| 
 
Solo: with flange 
|--------------------------------------------------------------------| 
|--------------------------------------------------------------------| 
|-2---0--------4-4b------7-5-4h5--------7---7---7b-7b--9p7h9b-9b-10b-| 
|-------2-1-0--------------------------------------------------------| 
|-------------3------0-0---------0W--w------------------------------| 
|--------------------------------------------------------------------| 
 
The last four chords:
|-1--------------1----------------0---------------0-----------------| 
|-1--------------1----------------1---------------1-----------------| 
|-2--------------1----------------2---------------2-----------------| 
|-3--------------3----------------2---------------2-----------------| 
|--------------------------------------------------------------------| 
|--------------------------------------------------------------------|
 
 

Видео