Muse - Micro Cuts, аккорды

Прокрутка
Тональность
Шрифт
100
Tuning [D-A-D-G-B-E]
 
Intro:
Dm 
E|-------------10----------|-------------10----------|----| 
B|-------10-------10----10-|-------10-------10----10-|----| 
G|----10----10-------10----|----10----10-------10----|----| 
D|-12----------------------|-12----------------------| x4-| 
A|-------------------------|-------------------------|----| 
D|-------------------------|-------------------------|----| 
 
Dm Gm Dm D 
E|-------------10----------|-------------10----------|----------10----------10-| 
B|-------10-------10----10-|-------11-------11----11-|-------10----------10----| 
G|----10----10-------10----|----12----12-------12----|----10----------11-------| 
D|-12----------------------|-12----------------------|-12----------12----------| 
A|-------------------------|-------------------------|-------------------------| 
D|-------------------------|-------------------------|-------------------------| 
 
Gm 
E|-------------10----------10----------|-------------10----------10----------| 
B|-------11-------11----11----11----11-|-------11-------11----11----11----11-| 
G|----12----12-------12----------12----|----12----12-------12----------12----| 
D|-12----------------------------------|-12----------------------------------| 
A|-------------------------------------|-------------------------------------| 
D|-------------------------------------|-------------------------------------| 
 
Dm A7 
E|-------------10----------10----------|-------------12----------12----------| 
B|-------10-------10----10----10----10-|-------10-------10----10----10----10-| 
G|----10----10-------10----------10----|----12----12-------12----------12----| 
D|-12----------------------------------|-11----------------------------------| 
A|-------------------------------------|-------------------------------------| 
D|-------------------------------------|-------------------------------------| 
 
Dm 
E|-------------10----------10----------|----------10----------10----------10-| 
B|-------10-------10----10----10----10-|-------10----------10----------10----| 
G|----10----10-------10----------10----|----10----------10----------10-------| 
D|-12----------------------------------|-12----------12----------12----------| 
A|-------------------------------------|-------------------------------------| 
D|-------------------------------------|-------------------------------------| 
 
Verse:
Dm Gm Dm D 
E|-------------10----------|-------------10----------|----------10----------10-| 
B|-------10-------10----10-|-------11-------11----11-|-------10----------10----| 
G|----10----10-------10----|----12----12-------12----|----10----------11-------| 
D|-12----------------------|-12----------------------|-12----------12----------| 
A|-------------------------|-------------------------|-------------------------| 
D|-------------------------|-------------------------|-------------------------| 
Hands are red with 

Gm 
E|-------------10----------10----------|-------------10----------10----------| 
B|-------11-------11----11----11----11-|-------11-------11----11----11----11-| 
G|----12----12-------12----------12----|----12----12-------12----------12----| 
D|-12----------------------------------|-12----------------------------------| 
A|-------------------------------------|-------------------------------------| 
D|-------------------------------------|-------------------------------------| 
your blame 

Dm A7 
E|-------------10----------10----------|-------------12----------12----------| 
B|-------10-------10----10----10----10-|-------10-------10----10----10----10-| 
G|----10----10-------10----------10----|----12----12-------12----------12----| 
D|-12----------------------------------|-11----------------------------------| 
A|-------------------------------------|-------------------------------------| 
D|-------------------------------------|-------------------------------------| 
megaphone screaming my 

Dm 
E|-------------10----------10----------|----------10----------10----------10-| 
B|-------10-------10----10----10----10-|-------10----------10----------10----| 
G|----10----10-------10----------10----|----10----------10----------10-------| 
D|-12----------------------------------|-12----------12----------12----------| 
A|-------------------------------------|-------------------------------------| 
D|-------------------------------------|-------------------------------------| 
name 

Dm Gm Dm D 
E|-------------10----------|-------------10----------|----------10----------10-| 
B|-------10-------10----10-|-------11-------11----11-|-------10----------10----| 
G|----10----10-------10----|----12----12-------12----|----10----------11-------| 
D|-12----------------------|-12----------------------|-12----------12----------| 
A|-------------------------|-------------------------|-------------------------| 
D|-------------------------|-------------------------|-------------------------| 
Whim pers some one 

Gm 
E|-------------10----------10----------|-------------10----------10----------| 
B|-------11-------11----11----11----11-|-------11-------11----11----11----11-| 
G|----12----12-------12----------12----|----12----12-------12----------12----| 
D|-12----------------------------------|-12----------------------------------| 
A|-------------------------------------|-------------------------------------| 
D|-------------------------------------|-------------------------------------| 
I should have loved 

Dm A7 
E|-------------10----------10----------|-------------12----------12----------| 
B|-------10-------10----10----10----10-|-------10-------10----10----10----10-| 
G|----10----10-------10----------10----|----12----12-------12----------12----| 
D|-12----------------------------------|-11----------------------------------| 
A|-------------------------------------|-------------------------------------| 
D|-------------------------------------|-------------------------------------| 
souls weeping a 

Dm 
E|-------------10----------10----------|----------10----------10----------10-| 
B|-------10-------10----10----10----10-|-------10----------10----------10----| 
G|----10----10-------10----------10----|----10----------10----------10-------| 
D|-12----------------------------------|-12----------12----------12----------| 
A|-------------------------------------|-------------------------------------| 
D|-------------------------------------|-------------------------------------| 
bove 
 
E|-X-X------X-X-------X-X-| 
B|-X-X------X-X-------X-X-| 
G|-X-X------X-X-------X-X-| 
D|------------------------| 
A|------------------------| 
D|------------------------| 
I've 

Chorus:
Gm D7-9 Gm 
E|-6-6-6-6-6-6-6-6-|-----------------|-6-6-6-6-6-6-6-6-|-6-6-6-6-6-6-6-6-| 
B|-8-8-8-8-8-8-8-8-|-----------------|-8-8-8-8-8-8-8-8-|-8-8-8-8-8-8-8-8-| 
G|-7-7-7-7-7-7-7-7-|-----------------|-7-7-7-7-7-7-7-7-|-7-7-7-7-7-7-7-7-| 
D|-5-5-5-5-5-5-5-5-|-4-4-4-4-4-4-4-4-|-5-5-5-5-5-5-5-5-|-5-5-5-5-5-5-5-5-| 
A|-5-5-5-5-5-5-5-5-|-0-0-0-0-0-0-0-0-|-5-5-5-5-5-5-5-5-|-5-5-5-5-5-5-5-5-| 
D|-5-5-5-5-5-5-5-5-|-0-0-0-0-0-0-0-0-|-5-5-5-5-5-5-5-5-|-5-5-5-5-5-5-5-5-| 
seen what you're 

D7-9 Gm 
E|-6-6-6-6-6-6-6-6-|-----------------|-6-6-6-6-6-6-6-6-| 
B|-8-8-8-8-8-8-8-8-|-----------------|-8-8-8-8-8-8-8-8-| 
G|-7-7-7-7-7-7-7-7-|-----------------|-7-7-7-7-7-7-7-7-| 
D|-5-5-5-5-5-5-5-5-|-4-4-4-4-4-4-4-4-|-5-5-5-5-5-5-5-5-| 
A|-5-5-5-5-5-5-5-5-|-0-0-0-0-0-0-0-0-|-5-5-5-5-5-5-5-5-| 
D|-5-5-5-5-5-5-5-5-|-0-0-0-0-0-0-0-0-|-5-5-5-5-5-5-5-5-| 
do ing to me 
 
 

Видео