Muse - In Your World, аккорды

Прокрутка
Тональность
Шрифт
100
 E|--------------------------------------------------------------------|--------| 
 B|--------------------------------------------------------------------|--------| 
 G|-10--10------------10--10------------9---9-----------9---9----------|-10--10-| 
 D|-10--10--10-10-10--10--10--10-10-10--9---9--7--7--7--9---9--7--7-7--|-10--10-| 
 A|--8---8--10-10-10---8---8--10-10-10--7---7--7--7--7--7---7--7--7-7--|--8---8-| 
 E|----------8--8--8-----------8--8--8---------5--5--5---------5--5-5--|--------| 
 
 E|------------------------------------------------| 
 B|------------------------------------------------| 
 G|----------h7p0h5p0h4p0---------------------h4p0-| 
 D|----h7p0---------------------h7p0h6p0h7p0-------| 
 A|------------------------------------------------| 
 E|------------------------------------------------| 
 
On the 4th time then do this 
 E|---------------------------------------------| 
 B|---------------------------------------------| 
 G|------------------------h4p0h5p0h7p0h5p0h4p0-| 
 D|-----h7p0h6p07p0-----------------------------| 
 A|---------------------------------------------| 
 E|---------------------------------------------| 
 
Verse:
 E|------0------------------------1--------------------------1------------1-----| 
 B|----------------1------------------1-------1----------3-------3-----3--------| 
 G|---------2---------2-------------------2-------2---2-------------2---------0-| 
 D|-----------------------------------------------------------------------------| 
 A|-------------0--------------3------------------------------------------------| 
 E|--0---------------------1----------------------------------------------------| 
 
 E|-------0------------0---------5-----------5----------------1------------1----| 
 B|----------3------------3---------5-----------5----------------1------------1-| 
 G|----1------------1------------------5-----------5----------------------------| 
 D|---------------------------------------7----------------2------------2-------| 
 A|-2------------2------------0-------------------------3------------3----------| 
 E|-0------------0--------------------------------------------------------------| 
 
 E|--------1-----------1-----------------------------------------------| 
 B|-----3-----3-----3-----3--------------------------------------------| 
 G|--2-----------2---------------1-----1---1---------------------------| 
 D|------------------------------x-----x---x-----x---x---x---x---x---x-| 
 A|------------------------------2-----2---2-----x---x---x---x---x---x-| 
 E|------------------------------0-----0---0-----x---x---x---x---x---x-| 
 
Prechorus:
 E|---------------------------------------------------------| 
 B|---------------------------------------------------------| 
 G|---5----7----9---10----9-9-9-9-9-9-9-9----10-10-10-10-10-| 
 D|---5----7----9---10--- 9-9-9-9-9-9-9-9----10-10-10-10-10-| 
 A|---3----5----7----8----7-7-7-7-7-7-7-7-----8--8--8--8--8-| 
 E|---------------------------------------------------------| 
 
finish chorus on this chord 
on the third time ⁄/⁄/⁄/⁄/ 
 E|--------------------------------------------------------------------|--------| 
 B|--------------------------------------------------------------------|--------| 
 G|--10--10------------10--10------------9---9-----------9---9---------|-10--10-| 
 D|--10--10--10-10-10--10--10--10-10-10--9---9--7--7--7--9---9--7--7-7-|-10--10-| 
 A|---8---8--10-10-10---8---8--10-10-10--7---7--7--7--7--7---7--7--7-7-|--8---8-| 
 E|-----------8--8--8-----------8--8--8---------5--5--5---------5--5-5-|--------| 
 
 E|------------------------------------------------| 
 B|------------------------------------------------| 
 G|----------h7p0h5p0h4p0---------------------h4p0-| 
 D|----h7p0---------------------h7p0h6p0h7p0-------| 
 A|------------------------------------------------| 
 E|------------------------------------------------| 
 
 E|----------------------------------------------------------------------| 
 B|----------------------------------------------------------------------| 
 G|------------------------h4p0h5p0h7p0h5p0h4p0--------------------------| 
 D|-----h7p0h6p07p0-----------------------------------h7-hold note until-| 
 A|-------------------------------------------------------prechorus------| 
 E|----------------------------------------------------------------------| 
 
Prechorus:
 E|---------------------------------------------------------| 
 B|---------------------------------------------------------| 
 G|---5----7----9---10----9-9-9-9-9-9-9-9----10-10-10-10-10-| 
 D|---5----7----9---10--- 9-9-9-9-9-9-9-9----10-10-10-10-10-| 
 A|---3----5----7----8----7-7-7-7-7-7-7-7-----8--8--8--8--8-| 
 E|---------------------------------------------------------| 
 
finish chorus on this chord 
on the third time ⁄/⁄/⁄/⁄/ 
 E|--------------------------------------------------------------------|--------| 
 B|--------------------------------------------------------------------|--------| 
 G|--10--10------------10--10------------9---9-----------9---9---------|-10--10-| 
 D|--10--10--10-10-10--10--10--10-10-10--9---9--7--7--7--9---9--7--7-7-|-10--10-| 
 A|---8---8--10-10-10---8---8--10-10-10--7---7--7--7--7--7---7--7--7-7-|--8---8-| 
 E|-----------8--8--8-----------8--8--8---------5--5--5---------5--5-5-|--------| 
 
Outro:
 E|------------------------------------------------| 
 B|------------------------------------------------| 
 G|----------h7p0h5p0h4p0---------------------h4p0-| 
 D|----h7p0---------------------h7p0h6p0h7p0-------| 
 A|------------------------------------------------| 
 E|------------------------------------------------| 
 
 E|-------------------------------------------------------------| 
 B|-------------------------------------------------------------| 
 G|----------------------h4p0h5p0h7p0h5p0h4p0-------------------| 
 D|-----h7p0h6p07p0---------------------------------h7p0h6p07p0-| 
 A|-------------------------------------------------------------| 
 E|-------------------------------------------------------------| 
 
 E|-------------------------------------------------------------------| 
 B|-------------------------------------------------------------------| 
 G|--- h4p0h5p0h7p0h5p0h7p0h5p0h7p0h9p0h7p0h9p0h10p0h9p0h10p0h12p0h10-| 
 D|-------------------------------------------------------------------| 
 A|-------------------------------------------------------------------| 
 E|-------------------------------------------------------------------| 
 
 E|-------------------------------------------------------------------| 
 B|-------------------------------------------------------------------| 
 G|---p0h9p0h10p0h9p0h7p0h9p0h7p0h5p0h7p0h5p0h4p0h5p0h4p0h5p0h7p0-----| 
 D|----------------------------------------------------------------h7-| 
 A|-------------------------------------------------------------------| 
 E|-------------------------------------------------------------------| 
 
The very end few notes could also be played like this I cant decide 
 
 G|---0h5p0h7p0h5p0h4p0-----| 
 D|----------------------h7-|
 
 

Видео