Muse - Host, аккорды

Прокрутка
Тональность
Шрифт
100
Intro:  
E----------------------------------------------------------------------- 
B-----1-------0-------1-------0-------1---------------1---1------------- 
G-----2-------1-------0-------1-------2-------1-------2---2------------- 
D---2---2---0---0---2---2---0---0---2---2-----2-----2---2--------------- 
A-0-------2-------3-------2-------0---------2---2-0--------------------- 
E-----------------------------------------0----------------------------- 
 
Verse & Chorus:  
E----------------------------------------------------------------------- 
B-----1-------0-------1-------0-------1---------------1---1------------- 
G-----2-------1-------0-------1-------2-------1-------2---2------------- 
D---2---2---0---0---2---2---0---0---2---2-----2-----2---2--------------- 
A-0-------2-------3-------2-------0---------2---2-0--------------------- 
E-----------------------------------------0----------------------------- 
 
E----------------------------------------------------------------------- 
B-----1-------0-------1-------0-------1---------------1---1------------- 
G-----2-------1-------0-------1-------2-------1-------2---2------------- 
D---2---2---0---0---2---2---0---0---2---2-----2-----2---2--------------- 
A-0-------2-------3-------2-------0---------2---2-0--------------------- 
E-----------------------------------------0----------------------------- 
 
E-------------------------1---1-----1-----1-------1---0---0---0---0---0- 
B---------1---------------3-----3-----3-----3-----1---1---3---1---1---1- 
G---------0-------1-----2---2-----2-----2------------------------------- 
D-------2---2-----2---0--------------------------2--2---2---2---2---2--- 
A-0-2-3---------2---2-------------------------0------------------------- 
E-------------0--------------------------------------------------------- 
 
E---------------------------1---1-----1-----1-------1---0---0---0---0--- 
B-----------1---------------3-----3-----3-----3-----1---1---3---1---1--- 
G-----------0-------1-----2---2-----2-----2----------------------------- 
D-2-------2---2-----2---0-------------------------2---2---2---2---2---2- 
A---0-2-3---------2---2-------------------------0----------------------- 
E---------------0------------------------------------------------------- 
 
E-0--------------------------------------------------------------------- 
B-1--------------------------------------------------------------------- 
G----------------------------------------------------------------------- 
D----------------------------------------------------------------------- 
A----------------------------------------------------------------------- 
E----------------------------------------------------------------------- 
 
Bridge: 
E-x-x-x-x-0-0-0-0-1-1-1-1-3-3-3-3--0-0-------------0---------------0---- 
B-1-1-1-1-0-0-0-0-1-1-1-1-3-3-3-3--1---1-------1-----1---------------0-- 
G-0-0-0-0-1-1-1-1-2-2-2-2-4-4-4-4--2-----2-------------2---------------- 
D-2-2-2-2-2-2-2-2-3-3-3-3-5-5-5-5--2-------2-2---2-------2-----2-------- 
A-3-3-3-3-2-2-2-2-3-3-3-3-5-5-5-5--0-------------------------2---2------ 
E-x-x-x-x-0-0-0-0-1-1-1-1-3-3-3-3--------------------------0------------ 
 
E-------------0---------------0---------------0---------------0--------- 
B---------------0---------------1---------------0---------------1------- 
G-1---------------1-------2-------2-------1-------1-------0-------0----- 
D---2-----2---------2---2---2-------2---0---0-------0---2---2-------2--- 
A-------2---2---------0---------------2---------------3----------------- 
E-----0----------------------------------------------------------------- 
Outro: 
E---------0---------------0---------------0------------0-0-0-0-0-0-0-0-- 
B-----------3---------------0---------------0----------1-1-1-1-1-1-1-1-- 
G-----0-------0---------------1---------------1---2----2-2-2-2-2-2-2-2-- 
D---4---4-------4-----2---------2-----2---------2-2----2-2-2-2-2-2-2-2-- 
A-5-----------------2---2-----------2---2---------0----0-0-0-0-0-0-0-0-- 
E-----------------0---------------0--------------------x-x-x-x-x-x-x-x-- 
 
E-0-0-0-0-0-0-0-0-0-0-0-0-0-0-0-0-0-0-0-0-0-0-0-0-0-0-0-0-----0-0-0-0-0- 
B-0-0-0-0-0-0-0-0-1-1-1-1-1-1-1-1-0-0-0-0-0-0-0-0-1-1-1-1-----0-0-0-0-0- 
G-1-1-1-1-1-1-1-1-0-0-0-0-0-0-0-0-1-1-1-1-1-1-1-1-2-2-2-2-----1-1-1-1-1- 
D-0-0-0-0-0-0-0-0-2-2-2-2-2-2-2-2-0-0-0-0-0-0-0-0-2-2-2-2-----2-2-2-2-2- 
A-2-2-2-2-2-2-2-2-3-3-3-3-3-3-3-3-2-2-2-2-2-2-2-2-0-0-0-0-----2-2-2-2-2- 
E-x-x-x-x-x-x-x-x-x-x-x-x-x-x-x-x-x-x-x-x-x-x-x-x-x-x-x-x-3-1-0-0-0-0-0- 
 
E-0-0-0-0-0-0-0-0-0-0-0-0-0-0-0-0-0-0-0---x--x--x--x--x--x--x--x--x--x-- 
B-0-0-0-1-1-1-1-0-0-0-0-1-1-1-1-3-3-3-3---x--x--x--x--x--x--x--x--x--x-- 
G-1-1-1-2-2-2-2-1-1-1-1-0-0-0-0-0-0-0-0--14-14-14-14-14-14-14-14-16-16-- 
D-2-2-2-2-2-2-2-0-0-0-0-2-2-2-2-4-4-4-4---x--x--x--x--x--x--x--x--x--x-- 
A-2-2-2-0-0-0-0-2-2-2-2-3-3-3-3-5-5-5-5--12-12-12-12-12-12-12-12-14-14-- 
E-0-0-0-x-x-x-x-x-x-x-x-x-x-x-x-x-x-x-x---x--x--x--x--x--x--x--x--x--x-- 
 
E--x--x--x--x--x--x--x--x--x--x--x--x--x--x--x--x--x--x--x--x--x--x--x-- 
B--x--x--x--x--x--x--x--x--x--x--x--x--x--x--x--x--x--x--x--x--x--x--x-- 
G-16-16-16-16-16-16-17-17-17-17-17-17-17-17-19-19-19-19-20-20-20-20-21-- 
D--x--x--x--x--x--x--x--x--x--x--x--x--x--x--x--x--x--x--x--x--x--x--x-- 
A-14-14-14-14-14-14-15-15-15-15-15-15-15-15-17-17-17-17-18-18-18-18-19-- 
E--x--x--x--x--x--x--x--x--x--x--x--x--x--x--x--x--x--x--x--x--x--x--x-- 
 
E-x-x-x-x----0--------0------------------------------------------------- 
B-x-x-x-x----0--------1------------------------------------------------- 
G-x-x-x-x----1-let----2-BIG--------------------------------------------- 
D-x-x-x-x----2-ring---2-FINISH!----------------------------------------- 
A-x-x-x-x----2--------0------------------------------------------------- 
E-x-x-x-x-12⁄0--------x-------------------------------------------------
 
 

Видео