Muse - Hysteria, аккорды

Прокрутка
Тональность
Шрифт
100
Intro Guitar: 
Before this slide your pick up slowly gradually speeding up 
 e|--------------------------------------| 
 B|----b12-10-----b12-10----b12-10---b12-| 
 G|-14---------13--------10--------9-----| 
 D|-x----------x---------x---------x-----| x2 (once when its after the chorus) 
 A|-12---------11--------8---------7-----| 
 E|--------------------------------------| 
x7 x7 x7 x7 
 
 e|-----| 
 B|-----| 
 G|-----| 
 D|-7---| Played very quietly after the intro 
 A|-7---| 
 E|-5---| 
 
Play this over the 5th fret:
 e|-xxxxxx-xxxxxx-xxxxx-| 
 B|-xxxxxx-xxxxxx-xxxxx-| 
 G|-xxxxxx-xxxxxx-xxxxx-| 
 D|-xxxxxx-xxxxxx-xxxxx-| 
 A|-xxxxxx-xxxxxx-xxxxx-| 
 E|-xxxxxx-xxxxxx-xxxxx-| 
 
Chorus: (First one) 
 e|---------------------------------------------| 
 B|---------------------------------------------| 
 G|-5555555555------------7777777777------------| 
 D|-5555555555-5555555555-7777777777-7777777777-| 
 A|-3333333333-5555555555-5555555555-7777777777-| 
 E|-3333333333-3333333333-5555555555-5555555555-| 
 
 e|----------------------------------------------------------------------------| 
 B|----------------------------------------------------------------------------| 
 G|-5555555555------------7777777777-------------------------------------------| 
 D|-5555555555-5555555555-7777777777-------------------------------------------| 
 A|-3333333333-5555555555-5555555555------------------10-10------10-10---10-12-| 
 E|-3333333333-3333333333-5555555555-0-0-10-0-10-12-0------12-12-------12------| 
 
(Replay the intro) 
 
Chorus/Outro: (Second time) 
 e|---------------------------------------------| 
 B|---------------------------------------------| 
 G|-5555555555------------7777777777------------| 
 D|-5555555555-5555555555-7777777777-7777777777-| 
 A|-3333333333-5555555555-5555555555-7777777777-| 
 E|-3333333333-3333333333-5555555555-5555555555-| 
 
 e|-------------------------------------------------| 
 B|-------------------------------------------------| 
 G|-5555555555------------7777777777----------------| 
 D|-5555555555-5555555555-7777777777-777-xxx-7--12⁄-| (Not sure about this) 
 A|-3333333333-5555555555-5555555555-777-xxx-7--x---| 
 E|-3333333333-3333333333-5555555555-555-xxx-5--10⁄-| 
 
 e|----------------------------------------| 
 B|----------------------------------------| 
 G|----------------------------------------| 
 D|----------------------------------------|x3 (Play 6 times when its the outro) 
 A|----------------------------------------| 
 E|-0-0-10-0-10-12-0-10-0-10/9-0-9/8-0-8/7-| 
 
 e|---------------------------------------------| 
 B|---------------------------------------------| 
 G|---------------------------------------------| 
 D|---------------------------------------------| 
 A|------------------10-10-------10-10----10-12-| 
 E|-0-0-10-0-10-12-0-------12-12-------12-------| 
 
Solo:

Part 1 (play twice) 
 e|-------------------------------------------------------| 
 B|-------17-17-------18-18-------18-18-17-17----17-------| 
 G|-14-14-------14-14-------14-14-------------14----13-13-| 
 D|-------------------------------------------------------| 
 A|-------------------------------------------------------| 
 E|-------------------------------------------------------| 
 
 E|-------------------------------------------| 
 B|-17-17-------18-18-------18-18-17-17----17-| 
 G|-------13-13-------13-13-------------13----| 
 D|-------------------------------------------| 
 A|-------------------------------------------| 
 E|-------------------------------------------| 
 
 e|-------------------17-17-------------------------| 
 B|-------18-18-------------------18-18-------17-17-| 
 G|-14-14-------14-14-------14-14-------14-14-------| 
 D|-------------------------------------------------| 
 A|-------------------------------------------------| 
 E|-------------------------------------------------| 
 
Part 2 (play after the first part 1) 
 e|-------------------------------------------------| 
 B|-------17-17-------17-17-------18-18-17-17----17-| 
 G|-14-14-------14-14-------14-14-------------14----| 
 D|-------------------------------------------------| 
 A|-------------------------------------------------| 
 E|-------------------------------------------------| 
 
Part 3 (play after the second part 1) 
 e|-----------------------------------------------| 
 B|-17---------15---------13----------12----------| 
 G|-----------------------------------------------| 
 D|---17-17-17---15-15-15----14-14-14----12-12-12-| 
 A|-----------------------------------------------| 
 E|-----------------------------------------------| 
 
End of solo:
 e|--------------------------------------------------| 
 B|-13-----13-12-10/12-12-------12-12-13/15-15-------| 
 G|---12------------------12-------------------14----| 
 D|-----14-------------------12-------------------15-| 
 A|--------------------------------------------------| 
 E|--------------------------------------------------| 
 
 E|----------------------------------| 
 B|-15-13-12/13-13-------15-13-12/13-| 
 G|----------------14----------------| 
 D|-------------------14-------------| 
 A|----------------------------------| 
 E|----------------------------------| 
 
 e|---------------------------------------------------------------| 
 B|-13-----13-12-10/12-12-------12-b13-----15-13-12/13-13---------| 
 G|---12------------------12------------------------------14------| 
 D|-----14-------------------12--------14--------------------14~--| 
 A|---------------------------------------------------------------| 
 E|---------------------------------------------------------------|
 
 

Видео