Muse - Time Is Running Out, аккорды

Прокрутка
Тональность
Шрифт
100
Verse:
e-12-------11------------12-13-10-
B----13-10----13-10-9-12----------
G---------------------------------
D---------------------------------
A---------------------------------
E---------------------------------

Pre-Cноrus:
e-------------------
B-------------------
G-------------------
D-77777777-55555555-
A-77777777-55555555-
E-55555555-33333333- x4 

e|------------
B|------------
G|-12--10---9-
D|------------
A|-10--8----7-
E|------------
  
Chorus:
e-1--3---5--3-
B-1--3---5--3-
G-2--4---6--5-
D-3--5---7--5-
A-3--5---7--3-
E-1--3---5----  X2

Last line оf chorus:
e------------------
B------------------
G------------------
D------------------
A-----3--------5---
E-1-1---1--3-3---3-

Before 2nd verse:
e--------------------------
B--------------------------
G-9------8----------9-10-7-
D---10-7---10-7-6-9--------
A--------------------------
E--------------------------

Verse 2:
e-------------------------------------------------
B-------------------------------------------------
G--2-2-5-2---4-4-2-4-------9----------------------
D--2-2-5-2---4-4-2-4---2-2-9-2--------------------
A--0-0-3-0---2-2-0-2---2-2-7-2-------3--------5---
E----------------------0-0---0---1-1---1--3-3---3- x3

Pre-Chоrus:
e--------------------------------------------------
B--------------------------------------------------
G--14-14-14-14-14-14-14-14-12-12-12-12-12-12-12-12-
D--------------------------------------------------
A--12-12-12-12-12-12-12-12-10-10-10-10-10-10-10-10-
E-------------------------------------------------- x4

e|------------
B|------------
G|-12--10---9-
D|------------
A|-10--8----7-
E|------------
  
Chorus:
e-1--3---5--3-
B-1--3---5--3-
G-2--4---6--5-
D-3--5---7--5-
A-3--5---7--3-
E-1--3---5----  X2

Last line оf chorus:
e------------------
B------------------
G------------------
D------------------
A-----3--------5---
E-1-1---1--3-3---3-

E-1-----0--------    e|---
B-1-----0--------    B|---
G-2-----2--------    G|-1-
D-3-----2--------    D|-2-
A-3-----0--------    A|-2-
E-1-------------- x3 E|-0-
   О-о-о yeah yeah yeah

e--12--11--10--8-
B--13--13--12--8-
G--14--14--13--7-
D----------------
A----------------
E----------------

Pre-Chоrus:
e--------------------------------------------------
B--------------------------------------------------
G--14-14-14-14-14-14-14-14-12-12-12-12-12-12-12-12-
D--------------------------------------------------
A--12-12-12-12-12-12-12-12-10-10-10-10-10-10-10-10-
E-------------------------------------------------- x4

e|------------
B|------------
G|-12--10---9-
D|------------
A|-10--8----7-
E|------------
  
Chorus:
e-1--3---5--3-
B-1--3---5--3-
G-2--4---6--5-
D-3--5---7--5-
A-3--5---7--3-
E-1--3---5----  X2

Last line оf chorus:
e------------------
B------------------
G------------------
D------------------
A-----3--------5---
E-1-1---1--3-3---3-

e|------------
B|------------
G|-9--8--7--5-
D|------------
A|------------
E|------------
 
 

Видео