Muse - Thought Contagion, аккорды

Прокрутка
Тональность
Шрифт
100
E|--------------------------------------------
B|--------------------------------------------
G|-2--1-0-------------------------------------
D|-----------4-3--2-1-0-----------------------
A|--------------------------3—4-5-6-7—8-9-11--
E|--------------------------------------------

E|----------------------------------------------
B|---------------------------1-----1-0----------
G|----2------0-------------------------2-1------
D|-------2-----3—0---2-----2--------------------
A|-0-------------3------------------------------
E|----------------------------------------------


Am          F
Strung out falling from the big time
C               E
Welcome to the infinite black skies
Am           F
Brain clans fractured identity
C                       E
Fragments and scattered debris

Am        F
Oh oh oh oh oh oh
C          E
Thought contagion X2

Am       F
Fall down long winds are counted out
C                E
Prop me up before I black out
Am           F
Withdraw before you're out of time
C                  E
A clean slate and buried war crimes


F           Dm     Am   C
You've been bitten by a true believer
F           Dm     Am               C
You've been bitten by someone’s who's hungrier than you
F           Dm     Am   C
You've been bitten by a true believer
F           Dm     E
You've been bitten by someone’s false beliefs

Am        F
Oh oh oh oh oh oh
C          E
Thought contagion X2

Am             F
They'll never Do what you want them to
C               E
Give it up and watch them break through
Am             F
It's too late for a revolution
C             E
Brace for the final solution

F           Dm     Am   C
You've been bitten by a true believer
F           Dm     Am               C
You've been bitten by someone’s who's hungrier than you
F           Dm     Am   C
You've been bitten by a true believer
F           Dm     E
You've been bitten by someone’s false beliefs

Am        F
Oh oh oh oh oh oh
C          E
Thought contagion      X2

Am          F
Strung out falling from the big time
C               E
Welcome to the infinite black skies
Am             F
It's too late for a revolution
C             E
Brace for the final solution
 
 
Свернуть Распечатать

Видео