Muse - Butterflies And Hurricanes, аккорды

Прокрутка
Тональность
Шрифт
100
e|----------------------------------------------------------------
B|----------------------------------------------------------------
G|----------------------------------------------------------------
D|----------------------------------------------------------------
A|----------------------------------------------------------------
D|-0-12-12-0-12-12.0.12.0.12.12.0-12-12-0-12-0-12-12-0-12-12-0-12-
 
Change:
e|-------------------------------------------------------
B|-------------------------------------------------------
G|-------------------------------------------------------
D|-------------------------------------------------------
A|----17-17-17-17-17-17-17-17-17-17-17-17-17-17-17-17-17-
D|----0--12-12-0--12-12-0--12.0--12-12-0--12-12-0--12-0--
 
Everything
e|-------------------------------------------------------
B|-------------------------------------------------------
G|-------------------------------------------------------
D|-------------------------------------------------------
A|----16-16-16-16-16-16-16-16-16-16-16-16-16-16-16-16-16-
D|----0--12-12-0--12-12-0-12.-0--12-12-0--12-12-0--12-0--
 
You are 
e|-------------------------------------------------------
B|-------------------------------------------------------
G|-------------------------------------------------------
D|-------------------------------------------------------
A|---15--15-15-15-15-15-15-15-15-15-15-15-15-15-15-15-15-
D|----0--12-12-0--12-12-0--12-0--12-12-0--12-12-0--12-0--
 
And everything
e|-------------------------------------------------------
B|-------------------------------------------------------
G|-------------------------------------------------------
D|-------------------------------------------------------
A|----14-14-14-14-14-14-14-14-14-14-14-14-14-14-14-14-14-
D|----0--12-12-0--12-12-0--12-0--12-12-0--12-12-0--12-0--
 
You were
e|-------------------------------------------------------
B|-------------------------------------------------------
G|-------------------------------------------------------
D|-------------------------------------------------------
A|---13--13-13-13-13-13-13-13-13-13-13-13-13-13-13-13-13-
D|----0--12-12-0--12-12-0--12-0--12.12-0--12-12-0--12-0--
 
e|-------------------------------------------
B|-------------------------------------------
G|-------------------------------------------
D|-------------------------------------------
A|-------------------------------------------
D|--12-12-12-11-11-11-10-10-10-9-9-9-8-8-7-7-
 
Your number has been
e|------------------------------------------------------------------
B|------------------------------------------------------------------
G|------------------------------------------------------------------
D|------------------------------------------------------------------
A|------------------------------------------------------------------
D|--6-6-6-6-6-6-6-6-6-6-6-6-6-6-6-6-2-2-2-2-2-2-2-2-2-2-2-2-2-2-2-2-
 
Called
e|----------------------------------------------------------------------------------
B|----------------------------------------------------------------------------------
G|----------------------------------------------------------------------------------
D|--7-7-7-7-7-7-7-7-7-7-7-7-8-8-8-8-11-11-11-11-11-11-11-11-11-11-11-11-11-11-11-11-
A|--7-7-7-7-7-7-7-7-7-7-7-7-7-7-7-7--7--7--7--7--7--7--7--7--7--7--7--7--7--7--7--7-
D|--7-7-7-7-7-7-7-7-7-7-7-7-7-7-7-7--7--7--7--7--7--7--7--7--7--7--7--7--7--7--7--7-
 
Fights
e|-------------------------------------------------------
B|-------------------------------------------------------
G|-------------------------------------------------------
D|-------------------------------------------------------
A|----17-17-17-17-17-17-17-17-17-17-17-17-17-17-17-17-17-
D|----0--12-12-0--12-12-0-12-0--12-12-0--12-12-0--12-0---
 
And battles have
e|-------------------------------------------------------
B|-------------------------------------------------------
G|-------------------------------------------------------
D|-------------------------------------------------------
A|---16--16-16-16-16-16-16-16-16-16-16-16-16-16-16-16-16-
D|----0--12-12-0--12-12-0--12-0--12-12-0--12-12-0--12-0--
 
Begun
e|--------------------------------------------------------
B|--------------------------------------------------------
G|--------------------------------------------------------
D|--------------------------------------------------------
A|---15--15-15-15-15-15-15-15-15-15-15-15-15-15-15-15-15-
D|----0--12-12-0--12-12-0--12-0--12-12-0--12-12-0--12-0--
 
Revenge will surely
e|-------------------------------------------------------
B|-------------------------------------------------------
G|-------------------------------------------------------
D|-------------------------------------------------------
A|----14-14-14-14-14-14-14-14-14-14-14-14-14-14-14-14-14-
D|----0--12-12-0--12-12-0--12-0--12-12-0--12-12-0--12-0--
 
Come
e|-------------------------------------------------------
B|-------------------------------------------------------
G|-------------------------------------------------------
D|-------------------------------------------------------
A|---13--13-13-13-13-13-13-13-13-13-13-13-13-13-13-13-13-
D|----0--12-12-0--12-12-0--12-0--12-12-0--12-12-0--12-0--
 
e|-------------------------------------------
B|-------------------------------------------
G|-------------------------------------------
D|-------------------------------------------
A|-------------------------------------------
D|--12-12-12-11-11-11-10-10-10-9-9-9-8-8-7-7-
 
Your hard times are
e|------------------------------------------------------------------
B|------------------------------------------------------------------
G|------------------------------------------------------------------
D|------------------------------------------------------------------
A|------------------------------------------------------------------
D|--6-6-6-6-6-6-6-6-6-6-6-6-6-6-6-6-2-2-2-2-2-2-2-2-2-2-2-2-2-2-2-2-
 
Ahead
e|----------------------------------------------------------------------------------
B|----------------------------------------------------------------------------------
G|----------------------------------------------------------------------------------
D|--7-7-7-7-7-7-7-7-7-7-7-7-8-8-8-8-11-11-11-11-11-11-11-11-11-11-11-11-11-11-11-11-
A|--7-7-7-7-7-7-7-7-7-7-7-7-7-7-7-7--7--7--7--7--7--7--7--7--7--7--7--7--7--7--7--7-
D|--7-7-7-7-7-7-7-7-7-7-7-7-7-7-7-7--7--7--7--7--7--7--7--7--7--7--7--7--7--7--7--7-
 
Best, you've got to
e|-----------------------------------------------------------------
B|-----------------------------------------------------------------
G|---------------------------------7-7-7-7-7-7-7-7-7-7-7-7-7-7-7-7-
D|-8-8-8-8-8-8-8-8-8-8-8-8-8-8-8-8-7-7-7-7-7-7-7-7-7-7-7-7-7-7-7-7-
A|-8-8-8-8-8-8-8-8-8-8-8-8-8-8-8-8-8-8-8-8-8-8-8-8-8-8-8-8-8-8-8-8-
D|-8-8-8-8-8-8-8-8-8-8-8-8-8-8-8-8-0-0-0-0-0-0-0-0-0-0-0-0-0-0-0-0-

Be the best, you've got to
e|-----------------------------------------------------------------
B|-----------------------------------------------------------------
G|---------------------------------7-7-7-7-7-7-7-7-7-7-7-7-7-7-7-7-
D|-8-8-8-8-8-8-8-8-8-8-8-8-8-8-8-8-7-7-7-7-7-7-7-7-7-7-7-7-7-7-7-7-
A|-8-8-8-8-8-8-8-8-8-8-8-8-8-8-8-8-8-8-8-8-8-8-8-8-8-8-8-8-8-8-8-8-
D|-8-8-8-8-8-8-8-8-8-8-8-8-8-8-8-8-0-0-0-0-0-0-0-0-0-0-0-0-0-0-0-0-
 
Change the world, and use this chance to be heard
e|---------------------------------------------------------------------------------
B|---------------------------------------------------------------------------------
G|---------------------------------------------------------------------------------
D|-8-8-8-8-8-8-8-8-8-8-8-8-8-8-8-8-3-3-3-3-3-3-3-3-7-7-7-7-7-7-7-7-8-8-8-8-8-8-8-8-
A|-8-8-8-8-8-8-8-8-8-8-8-8-8-8-8-8-3-3-3-3-3-3-3-3-4-4-4-4-4-4-4-4-5-5-5-5-5-5-5-5-
D|-8-8-8-8-8-8-8-8-8-8-8-8-8-8-8-8-3-3-3-3-3-3-3-3-4-4-4-4-4-4-4-4-5-5-5-5-5-5-5-5-
 
Your time is
e|-----------------------------------------------------------------
B|-----------------------------------------------------------------
G|-----------------------------------------------------------------
D|-8-8-8-8-8-8-8-8-8-8-8-8-8-8-8-8-3-3-3-3-3-3-3-3-3-3-3-3-3-3-3-3-
A|-8-8-8-8-8-8-8-8-8-8-8-8-8-8-8-8-3-3-3-3-3-3-3-3-3-3-3-3-3-3-3-3-
D|-8-8-8-8-8-8-8-8-8-8-8-8-8-8-8-8-3-3-3-3-3-3-3-3-3-3-3-3-3-3-3-3-
 
Your time is(now)
e|-----------------------------------------------------------------
B|-----------------------------------------------------------------
G|-----------------------------------------------------------------
D|-8-8-8-8-8-8-8-8-8-8-8-8-8-8-8-8-3-3-3-3-3-3-3-3-3-3-3-3-3-3-3-3-
A|-8-8-8-8-8-8-8-8-8-8-8-8-8-8-8-8-3-3-3-3-3-3-3-3-3-3-3-3-3-3-3-3-
D|-8-8-8-8-8-8-8-8-8-8-8-8-8-8-8-8-3-3-3-3-3-3-3-3-3-3-3-3-3-3-3-3-
 
Now
e|-----------------------------------------------------------------
B|-----------------------------------------------------------------
G|-----------------------------------------------------------------
D|-8-8-8-8-8-8-8-8-8-8-8-8-8-8-8-8-8-8-8-8-8-8-8-8-8-8-8-8-8-8-8-8-
A|-7-7-7-7-7-7-7-7-7-7-7-7-7-7-7-7-7-7-7-7-7-7-7-7-7-7-7-7-7-7-7-7-
D|-7-7-7-7-7-7-7-7-7-7-7-7-7-7-7-7-7-7-7-7-7-7-7-7-7-7-7-7-7-7-7-7-
 
e|-------------------------------------------------------------------------
B|-------------------------------------------------------------------------
G|-------------------------------------------------------------------------
D|---7-x-x-/14-x-x-11-x-x-8-x-x-5-x-8-x-7-x-x-/14-x-x-11-x-x-8-x-x-5-x-11x-
A|---7-x-x-/14-x-x-11-x-x-8-x-x-5-x-8-x-7-x-x-/14-x-x-11-x-x-8-x-x-5-x-11x-
D|---7-x-x-/14-x-x-11-x-x-8-x-x-5-x-8-x-7-x-x-/14-x-x-11-x-x-8-x-x-5-x-11x-
 
Change
e|-------------------------------------------------------
B|-------------------------------------------------------
G|-------------------------------------------------------
D|----12-12-12-12-12-12-12-12-12-12-12-12-12-12-12-12-12-
A|----17-17-17-17-17-17-17-17-17-17-17-17-17-17-17-17-17-
D|----0--0--0--0--0--0--0--0--0--0--0--0--0--0--0--0--0--
 
Everything
e|-------------------------------------------------------
B|-------------------------------------------------------
G|-------------------------------------------------------
D|----12-12-12-12-12-12-12-12-12-12-12-12-12-12-12-12-12-
A|----16-16-16-16-16-16-16-16-16-16-16-16-16-16-16-16-16-
D|----0--0--0--0--0--0--0--0--0--0--0--0--0--0--0--0--0--
 
You are
e|-------------------------------------------------------
B|-------------------------------------------------------
G|-------------------------------------------------------
D|----12-12-12-12-12-12-12-12-12-12-12-12-12-12-12-12-12-
A|----15-15-15-15-15-15-15-15-15-15-15-15-15-15-15-15-15-
D|----0--0--0--0--0--0--0--0--0--0--0--0--0--0--0--0--0--
 
And everything 
e|-------------------------------------------------------
B|-------------------------------------------------------
G|-------------------------------------------------------
D|----12-12-12-12-12-12-12-12-12-12-12-12-12-12-12-12-12-
A|----14-14-14-14-14-14-14-14-14-14-14-14-14-14-14-14-14-
D|----0--0--0--0--0--0--0--0--0--0--0--0--0--0--0--0--0--
 
You were
e|-------------------------------------------------------
B|-------------------------------------------------------
G|-------------------------------------------------------
D|----12-12-12-12-12-12-12-12-12-12-12-12-12-12-12-12-12-
A|----13-13-13-13-13-13-13-13-13-13-13-13-13-13-13-13-13-
D|----0--0--0--0--0--0--0--0--0--0--0--0--0--0--0--0--0--
 
e|-------------------------------------
B|-------------------------------------
G|-------------------------------------
D|-------------------------------------
A|-------------------------------------
D|--12-0-0-11-0-0-10-0-0-9-0-0-8-0-7-0-
 
Your number has been called
e|------------------------------------------------------------------
B|------------------------------------------------------------------
G|------------------------------------------------------------------
D|--6-6-6-6-6-6-6-6-6-6-6-6-6-6-6-6-2-2-2-2-2-2-2-2-2-2-2-2-2-2-2-2-
A|--6-6-6-6-6-6-6-6-6-6-6-6-6-6-6-6-2-2-2-2-2-2-2-2-2-2-2-2-2-2-2-2-
D|--6-6-6-6-6-6-6-6-6-6-6-6-6-6-6-6-2-2-2-2-2-2-2-2-2-2-2-2-2-2-2-2-
 
e|----------------------------------------------------------------------------------
B|----------------------------------------------------------------------------------
G|----------------------------------------------------------------------------------
D|--7-7-7-7-7-7-7-7-7-7-7-7-8-8-8-8-11-11-11-11-11-11-11-11-11-11-11-11-11-11-11-11-
A|--7-7-7-7-7-7-7-7-7-7-7-7-7-7-7-7--7--7--7--7--7--7--7--7--7--7--7--7--7--7--7--7-
D|--7-7-7-7-7-7-7-7-7-7-7-7-7-7-7-7--7--7--7--7--7--7--7--7--7--7--7--7--7--7--7--7-
 
Fights
e|-------------------------------------------------------
B|-------------------------------------------------------
G|-------------------------------------------------------
D|----12-12-12-12-12-12-12-12-12-12-12-12-12-12-12-12-12-
A|----17-17-17-17-17-17-17-17-17-17-17-17-17-17-17-17-17-
D|----0--0--0--0--0--0--0--0--0--0--0--0--0--0--0--0--0--
 
And battles have
e|-------------------------------------------------------
B|-------------------------------------------------------
G|-------------------------------------------------------
D|----12-12-12-12-12-12-12-12-12-12-12-12-12-12-12-12-12-
A|----16-16-16-16-16-16-16-16-16-16-16-16-16-16-16-16-16-
D|----0--0--0--0--0--0--0--0--0--0--0--0--0--0--0--0--0--
 
Begun
e|-------------------------------------------------------
B|-------------------------------------------------------
G|-------------------------------------------------------
D|----12-12-12-12-12-12-12-12-12-12-12-12-12-12-12-12-12-
A|----15-15-15-15-15-15-15-15-15-15-15-15-15-15-15-15-15-
D|----0--0--0--0--0--0--0--0--0--0--0--0--0--0--0--0--0--
 
Revenge will surely
e|-------------------------------------------------------
B|-------------------------------------------------------
G|-------------------------------------------------------
D|----12-12-12-12-12-12-12-12-12-12-12-12-12-12-12-12-12-
A|----14-14-14-14-14-14-14-14-14-14-14-14-14-14-14-14-14-
D|----0--0--0--0--0--0--0--0--0--0--0--0--0--0--0--0--0--
 
Come
e|-------------------------------------------------------
B|-------------------------------------------------------
G|-------------------------------------------------------
D|----12-12-12-12-12-12-12-12-12-12-12-12-12-12-12-12-12-
A|----13-13-13-13-13-13-13-13-13-13-13-13-13-13-13-13-13-
D|----0--0--0--0--0--0--0--0--0--0--0--0--0--0--0--0--0--
 
e|-------------------------------------------------------
B|-------------------------------------------------------
G|-------------------------------------------------------
D|----12-12-12-12-12-12-12-12-12-12-12-12-12-12-12-12-12-
A|----12-12-12-12-12-12-12-12-12-12-12-12-12-12-12-12-12-
D|----0--0--0--0--0--0--0--0--0--0--0--0--0--0--0--0--0--
 
Your hard times are ahead
e|------------------------------------------------------------------
B|------------------------------------------------------------------
G|------------------------------------------------------------------
D|--6-6-6-6-6-6-6-6-6-6-6-6-6-6-6-6-2-2-2-2-2-2-2-2-2-2-2-2-2-2-2-2-
A|--6-6-6-6-6-6-6-6-6-6-6-6-6-6-6-6-2-2-2-2-2-2-2-2-2-2-2-2-2-2-2-2-
D|--6-6-6-6-6-6-6-6-6-6-6-6-6-6-6-6-2-2-2-2-2-2-2-2-2-2-2-2-2-2-2-2-
 
e|----------------------------------------------------------------------------------
B|----------------------------------------------------------------------------------
G|----------------------------------------------------------------------------------
D|--7-7-7-7-7-7-7-7-7-7-7-7-8-8-8-8-11-11-11-11-11-11-11-11-11-11-11-11-11-11-11-11-
A|--7-7-7-7-7-7-7-7-7-7-7-7-7-7-7-7--7--7--7--7--7--7--7--7--7--7--7--7--7--7--7--7-
D|--7-7-7-7-7-7-7-7-7-7-7-7-7-7-7-7--7--7--7--7--7--7--7--7--7--7--7--7--7--7--7--7-
 
Best, you've got to 
e|-----------------------------------------------------------------
B|-----------------------------------------------------------------
G|---------------------------------7-7-7-7-7-7-7-7-7-7-7-7-7-7-7-7-
D|-8-8-8-8-8-8-8-8-8-8-8-8-8-8-8-8-7-7-7-7-7-7-7-7-7-7-7-7-7-7-7-7-
A|-8-8-8-8-8-8-8-8-8-8-8-8-8-8-8-8-8-8-8-8-8-8-8-8-8-8-8-8-8-8-8-8-
D|-8-8-8-8-8-8-8-8-8-8-8-8-8-8-8-8-0-0-0-0-0-0-0-0-0-0-0-0-0-0-0-0-
 
Be the best, you've got to
e|-----------------------------------------------------------------
B|-----------------------------------------------------------------
G|---------------------------------7-7-7-7-7-7-7-7-7-7-7-7-7-7-7-7-
D|-8-8-8-8-8-8-8-8-8-8-8-8-8-8-8-8-7-7-7-7-7-7-7-7-7-7-7-7-7-7-7-7-
A|-8-8-8-8-8-8-8-8-8-8-8-8-8-8-8-8-8-8-8-8-8-8-8-8-8-8-8-8-8-8-8-8-
D|-8-8-8-8-8-8-8-8-8-8-8-8-8-8-8-8-0-0-0-0-0-0-0-0-0-0-0-0-0-0-0-0-

Change the world and use this chance to be heard
e|---------------------------------------------------------------------------------
B|---------------------------------------------------------------------------------
G|---------------------------------------------------------------------------------
D|-8-8-8-8-8-8-8-8-8-8-8-8-8-8-8-8-3-3-3-3-3-3-3-3-7-7-7-7-7-7-7-7-8-8-8-8-8-8-8-8-
A|-8-8-8-8-8-8-8-8-8-8-8-8-8-8-8-8-3-3-3-3-3-3-3-3-4-4-4-4-4-4-4-4-5-5-5-5-5-5-5-5-
D|-8-8-8-8-8-8-8-8-8-8-8-8-8-8-8-8-3-3-3-3-3-3-3-3-4-4-4-4-4-4-4-4-5-5-5-5-5-5-5-5-
 
Your time is
e|-----------------------------------------------------------------
B|-----------------------------------------------------------------
G|-----------------------------------------------------------------
D|-8-8-8-8-8-8-8-8-8-8-8-8-8-8-8-8-3-3-3-3-3-3-3-3-3-3-3-3-3-3-3-3-
A|-8-8-8-8-8-8-8-8-8-8-8-8-8-8-8-8-3-3-3-3-3-3-3-3-3-3-3-3-3-3-3-3-
D|-8-8-8-8-8-8-8-8-8-8-8-8-8-8-8-8-3-3-3-3-3-3-3-3-3-3-3-3-3-3-3-3-

Your time is(now)
e|-----------------------------------------------------------------
B|-----------------------------------------------------------------
G|-----------------------------------------------------------------
D|-8-8-8-8-8-8-8-8-8-8-8-8-8-8-8-8-3-3-3-3-3-3-3-3-3-3-3-3-3-3-3-3-
A|-8-8-8-8-8-8-8-8-8-8-8-8-8-8-8-8-3-3-3-3-3-3-3-3-3-3-3-3-3-3-3-3-
D|-8-8-8-8-8-8-8-8-8-8-8-8-8-8-8-8-3-3-3-3-3-3-3-3-3-3-3-3-3-3-3-3-
 
Now
e|-----------------------------------------------------------------
B|-----------------------------------------------------------------
G|-----------------------------------------------------------------
D|-8-8-8-8-8-8-8-8-8-8-8-8-8-8-8-8-8-8-8-8-8-8-8-8-8-8-8-8-8-8-8-8-
A|-7-7-7-7-7-7-7-7-7-7-7-7-7-7-7-7-7-7-7-7-7-7-7-7-7-7-7-7-7-7-7-7-
D|-7-7-7-7-7-7-7-7-7-7-7-7-7-7-7-7-7-7-7-7-7-7-7-7-7-7-7-7-7-7-7-7-
 
e|--------------------------------------------------------------------------
B|--------------------------------------------------------------------------
G|--------------------------------------------------------------------------
D|---7-x-x-/14-x-x-11-x-x-8-x-x-5-x-8-x-7-x-x-/14-x-x-11-x-x-8-x-x-5-x-11-x-
A|---7-x-x-/14-x-x-11-x-x-8-x-x-5-x-8-x-7-x-x-/14-x-x-11-x-x-8-x-x-5-x-11-x-
D|---7-x-x-/14-x-x-11-x-x-8-x-x-5-x-8-x-7-x-x-/14-x-x-11-x-x-8-x-x-5-x-11-x-
 
e|-------------------------------------------------------------------
B|-------------------------------------------------------------------
G|-------------------------------------------------------------------
D|-------------------------------------------------------------------
A|-------------------------------------------------------------------
D|-0-0-0-0-0-0-0-0-0-0-0-0-0-0-0-0-0-0-0-0-0-0-0-0-0-0-0-0-0-0-0-0-0-
 
(strum fast, according to rhythm so the bass note stays constant rate)
e|-------------------------------------------
B|-------------------------------------------
G|-------------------------------------------
D|---19--------12-17--------19------12-17----
A|---17--------10-18--------17------10-18----
D|---0----------0--0--------0--------0--0----
 
e|------------------------------------------------------------------------------------22-
B|----------------------------------------------------------19---------19--------22------
G|-20------17---19---8-/14-----20---17---20---18---------19----19--------19--------------
D|-20------18---16---7/-13-----19---17---20---18------19-----------19--------19----------
A|-18--18--15---17---6/-12-----18---15---18---16---17------------------------------------
D|-0----0---0----0---0--0-------0---0-----0----0----0------------------------------------
 
(after piano) Don't
e|-------------------------------------------------------
B|-------------------------------------------------------
G|-------------------------------------------------------
D|-------------------------------------------------------
A|----17-17-17-17-17-17-17-17-17-17-17-17-17-17-17-17-17-
D|----0--12-12-0--12-12-0--12-0--12-12-0--12-12-0--12-0--
 
Let yourself
e|-------------------------------------------------------
B|-------------------------------------------------------
G|-------------------------------------------------------
D|-------------------------------------------------------
A|---16--16-16-16-16-16-16-16-16-16-16-16-16-16-16-16-16-
D|----0--12-12-0--12-12-0--12-0--12-12-0--12-12-0--12-0--
 
Down
e|-------------------------------------------------------
B|-------------------------------------------------------
G|-------------------------------------------------------
D|-------------------------------------------------------
A|---15--15-15-15-15-15-15-15-15-15-15-15-15-15-15-15-15-
D|----0--12-12-0--12-12-0--12-0--12-12-0--12-12-0--12-0--
 
Don't let yourself
e|------------------------------------------------------
B|------------------------------------------------------
G|------------------------------------------------------
D|------------------------------------------------------
A|---14-14-14-14-14-14-14-14-14-14-14-14-14-14-14-14-14-
D|----0--12-12-0--12-12-0--12-0--12-12-0--12-12-0--12-0-
 
Go
e|-------------------------------------------------------
B|------------------------------------------------------
G|-------------------------------------------------------
D|-------------------------------------------------------
A|---13--13-13-13-13-13-13-13-13-13-13-13-13-13-13-13-13-
D|----0--12-12-0--12-12-0--12-0--12-12-0--12-12-0--12-0--
 
e|-------------------------------------------
B|-------------------------------------------
G|-------------------------------------------
D|-------------------------------------------
A|-------------------------------------------
D|--12-12-12-11-11-11-10-10-10-9-9-9-8-8-7-7-
 
Your last chance has arrived
e|------------------------------------------------------------------
B|------------------------------------------------------------------
G|------------------------------------------------------------------
D|------------------------------------------------------------------
A|------------------------------------------------------------------
D|--6-6-6-6-6-6-6-6-6-6-6-6-6-6-6-6-2-2-2-2-2-2-2-2-2-2-2-2-2-2-2-2-
 
e|----------------------------------------------------------------------------------
B|----------------------------------------------------------------------------------
G|----------------------------------------------------------------------------------
D|--7-7-7-7-7-7-7-7-7-7-7-7-8-8-8-8-11-11-11-11-11-11-11-11-11-11-11-11-11-11-11-11-
A|--7-7-7-7-7-7-7-7-7-7-7-7-7-7-7-7--7--7--7--7--7--7--7--7--7--7--7--7--7--7--7--7-
D|--7-7-7-7-7-7-7-7-7-7-7-7-7-7-7-7--7--7--7--7--7--7--7--7--7--7--7--7--7--7--7--7-
 
Best, you've got to 
e|-----------------------------------------------------------------
B|-----------------------------------------------------------------
G|---------------------------------7-7-7-7-7-7-7-7-7-7-7-7-7-7-7-7-
D|-8-8-8-8-8-8-8-8-8-8-8-8-8-8-8-8-7-7-7-7-7-7-7-7-7-7-7-7-7-7-7-7-
A|-8-8-8-8-8-8-8-8-8-8-8-8-8-8-8-8-8-8-8-8-8-8-8-8-8-8-8-8-8-8-8-8-
D|-8-8-8-8-8-8-8-8-8-8-8-8-8-8-8-8-0-0-0-0-0-0-0-0-0-0-0-0-0-0-0-0-
 
Be the best
e|-----------------------------------------------------------------
B|-----------------------------------------------------------------
G|---------------------------------7-7-7-7-7-7-7-7-7-7-7-7-7-7-7-7-
D|-8-8-8-8-8-8-8-8-8-8-8-8-8-8-8-8-7-7-7-7-7-7-7-7-7-7-7-7-7-7-7-7-
A|-8-8-8-8-8-8-8-8-8-8-8-8-8-8-8-8-8-8-8-8-8-8-8-8-8-8-8-8-8-8-8-8-
D|-8-8-8-8-8-8-8-8-8-8-8-8-8-8-8-8-0-0-0-0-0-0-0-0-0-0-0-0-0-0-0-0-
 
You've got to change the world and use this chance to be heard
e|---------------------------------------------------------------------------------
B|---------------------------------------------------------------------------------
G|---------------------------------------------------------------------------------
D|-8-8-8-8-8-8-8-8-8-8-8-8-8-8-8-8-3-3-3-3-3-3-3-3-7-7-7-7-7-7-7-7-8-8-8-8-8-8-8-8-
A|-8-8-8-8-8-8-8-8-8-8-8-8-8-8-8-8-3-3-3-3-3-3-3-3-4-4-4-4-4-4-4-4-5-5-5-5-5-5-5-5-
D|-8-8-8-8-8-8-8-8-8-8-8-8-8-8-8-8-3-3-3-3-3-3-3-3-4-4-4-4-4-4-4-4-5-5-5-5-5-5-5-5-
 
Your time is
e|-----------------------------------------------------------------
B|-----------------------------------------------------------------
G|-----------------------------------------------------------------
D|-8-8-8-8-8-8-8-8-8-8-8-8-8-8-8-8-3-3-3-3-3-3-3-3-3-3-3-3-3-3-3-3-
A|-8-8-8-8-8-8-8-8-8-8-8-8-8-8-8-8-3-3-3-3-3-3-3-3-3-3-3-3-3-3-3-3-
D|-8-8-8-8-8-8-8-8-8-8-8-8-8-8-8-8-3-3-3-3-3-3-3-3-3-3-3-3-3-3-3-3-
 
Your time is (now)
e|-----------------------------------------------------------------
B|-----------------------------------------------------------------
G|-----------------------------------------------------------------
D|-8-8-8-8-8-8-8-8-8-8-8-8-8-8-8-8-3-3-3-3-3-3-3-3-3-3-3-3-3-3-3-3-
A|-8-8-8-8-8-8-8-8-8-8-8-8-8-8-8-8-3-3-3-3-3-3-3-3-3-3-3-3-3-3-3-3-
D|-8-8-8-8-8-8-8-8-8-8-8-8-8-8-8-8-3-3-3-3-3-3-3-3-3-3-3-3-3-3-3-3-
 
Now
e|-----------------------------------------------------------------
B|-----------------------------------------------------------------
G|-----------------------------------------------------------------
D|-8-8-8-8-8-8-8-8-8-8-8-8-8-8-8-8-8-8-8-8-8-8-8-8-8-8-8-8-8-8-8-8-
A|-7-7-7-7-7-7-7-7-7-7-7-7-7-7-7-7-7-7-7-7-7-7-7-7-7-7-7-7-7-7-7-7-
D|-7-7-7-7-7-7-7-7-7-7-7-7-7-7-7-7-7-7-7-7-7-7-7-7-7-7-7-7-7-7-7-7-
 
e|---------------------------------------------------------------------------
B|---------------------------------------------------------------------------
G|---------------------------------------------------------------------------
D|---7-x-x-/14-x-x-11-x-x-8-x-x-5-x-8-x-7-x-x-/14-x-x-11-x-x-8-x-x-5-x-11-12-
A|---7-x-x-/14-x-x-11-x-x-8-x-x-5-x-8-x-7-x-x-/14-x-x-11-x-x-8-x-x-5-x-11-12-
D|---7-x-x-/14-x-x-11-x-x-8-x-x-5-x-8-x-7-x-x-/14-x-x-11-x-x-8-x-x-5-x-11-12-
 
 

Видео