Muse - Hysteria, аккорды

Прокрутка
Тональность
Шрифт
100
Intro: x2
e|-----------------------------------------------------------------------|
B|-10—12b13rb12-10-9---12b13rb12-10----12b13br12-10-----12b13br12b13br12-|
G|---------------------------------10--------------9---------------------|
D|-----------------------------------------------------------------------|
A|-----------------------------------------------------------------------|
E|-----------------------------------------------------------------------|

Verse: Bass and drums only

Chorus:
      C    G     Dm      Am
e|---3-----5------5------5-|
B|---5-----5------6------5-|
G|---5-----4------7------5-|
D|---3-----5------7------7-|
A|---3-----5------5------7-|
E|---5-----3------5------5-|

Bridge: bass and drums

Solo: 
e|-------12------13--------13-12------12------13------13-12---------13-|
B|-10-10----10-10-----10-10--------9-9-----9-9-----9-9--------11-11----| 
G|---------------------------------------------------------------------| |
D|---------------------------------------------------------------------| |
A|---------------------------------------------------------------------| |
E|---------------------------------------------------------------------| |
                                                                         | x2 
e|-------14-------14-13--------12--------13---------13-12--------------| |
B|-11-11----11-11--------10-10-----10-10------10-10--------------------| |
G|---------------------------------------------------------------------| |
D|---------------------------------------------------------------------| |
A|---------------------------------------------------------------------| /
E|---------------------------------------------------------------------|/

e|-8-0-0—-7-0-0—-5-0-0—-4-0-0—-3-0-0—-1-0-0-|
B|------------------------------------------|
G|------------------------------------------|
D|------------------------------------------|
A|------------------------------------------|
E|------------------------------------------|

e|-----------------------------------------------------------------------------|
B|-12-------13-12-10-12-------12-13-15------15-13-12-13-------15-13-12-13------|
G|---13----------------13-------------13---------------14-----------------14---|
D|-----14----------------14-------------14---------------14-----------------14-|
A|-----------------------------------------------------------------------------|
E|-----------------------------------------------------------------------------|

e|--------------------------------------------------|
B|-13-12-10-12--------12-13-15b~~---15-13-12-13-----|
G|-------------13------------------------------14---|
D|---------------14------------------------------14-|
A|--------------------------------------------------|
E|--------------------------------------------------|

Комментарий автора:

Song Order:
Intro x2
Verse
Chorus
Intro x2
Verse 
Chorus
Brigde
Solo
Chorus
Bridge
 
 

Видео