Muse - Supermassive Black Hole, аккорды

Прокрутка
Тональность
Шрифт
100
Em                       Am Am G Em
Oh baby don't you know I suffer?
Em                       Am Am G Em
Oh baby can't you hear me moan?
Em                       Am Am G Em
You caught me under false pretences
Em                       Am Am G Em
How long before you let me go?
                                             
Припев:
 Am G# - G B          Em      
Oooh...You set my soul alight
 Am               Am - G# - G          
Glaciers melting in the dead of night
         B                         Em
And the superstars sucked into the supermassive 

Em                       Am Am G Em
I thought I was a fool for no-one
Em                    Am Am G Em
Oh baby I'm a fool for you
Em                       Am Am G Em                
You're the queen of the superficial
Em                       Am Am G Em
And how long before you tell the truth

Припев:
 Am G# - G B          Em      
Oooh...You set my soul alight
 Am               Am - G# - G          
Glaciers melting in the dead of night
         B                         Em
And the superstars sucked into the supermassive 

Комментарий автора:

Во время живых выступлений intro-
A|----10b----------10b------15|
E|-0------0--0-0-0-----0--0---|

Intro
E|----------------------------|
B|----------------------------|
G|----------------------------|
D|----------------------------| x3
A|----10b----------10b------10|
E|-0------0--0-0-0-----0--0---|

E|------------------------------|
B|------------------------------|
G|------------------------2-2>0-|
D|-----------------------------2|
A|----10b----------10b----------|
E|-0------0--0-0-0-----0--------|

Main Riff 1 куплет

A|----10b--------------10b-----7-7-5----10b--------------10b-----7-7-8-|
E|-0------0-0-3-3-3-0------0-0-5-5-3-0------0-0-3-3-3-0------0-0-5-5-6-|

E|-------------------------------------------------------------|
B|-------------------------------------------------------------|
G|-------------------------------------------------------------|
D|-------------------------------------------------------------|
A|----10b--------------10b-----7-7-5----10b--------------10b---|
E|-0------0-0-3-3-3-0------0-0-5-5-3-0------0-0-3-3-3-0------0-|


E|------|
B|------|
G|2-2>0-|
D|-----2|
A|------|
E|------|
 
 
Свернуть Распечатать

Видео