Мумий Тролль - Морская капуста, аккорды

Прокрутка
Тональность
Шрифт
100
Main Riff:  
Gm          Gm
--6-5-6-5-----6-6-5-6-5--------- 
--8-7-8-7-----8-8-7-8-7---------   
--7-6-7-6-----7-7-6-7-6--------- 
--5-4-5-4-----5-5-4-5-4---------     
--------------------------------             
--------------------------------

Bass:         
-------------------------------             
-------------------------------- 
--------------------------------             
--5-4^5-------5-5-4^5----------- 
--------5-------------5---------              
--------------------------------

Solo:        
----------------------------------
----------------------------------
--7-6-7-9-6-7--------------------- 
-----------------7^8-7------------
--------------------------8^9-8---
---------------------------------- 


----------------------------------
----------------------------------
----------------------------------
-------------------7^8-7--7^8-7---
---5-4-5-7-4-5--------------------
----------------------------------

--------------------------------------------
--------------------------------------------
--------------------------------------------
7^8--10--8-7--------------7^8-10-8-7--------
--------------7^8-7-------------------7^8-7-
--------------------------------------------

--------------------------------------------
--------------------------------------------
------------8-7-6-7--10--8-7-8--7^8-7^8-7^8-
----7^8-10----------------------------------
--------------------------------------------
--------------------------------------------

Gm
Помельче порежу морскую капусту
      F                  Gm
Не знаю ты любишь ли? но будет вкусно
Gm
Никогда ведь не скажешь придешь ли на вечер
       F           E           A(V)
Так адрес узнаешь а отметить и нечем

Gm
Еще я готов развлекать тебя песней
      F                  Gm
Но только в других гостях всегда интересней
Gm
Там смотрят кино и целуются в уста
       F           E           A(V)
А я режу режу режу режу морскую капусту
 
 

Видео